ISO-10303-21;
HEADER;
/* Generated by software containing ST-Developer
 * from STEP Tools, Inc. (www.steptools.com) 
 */

FILE_DESCRIPTION(
/* description */ (''),
/* implementation_level */ '2;1');

FILE_NAME(
/* name */ 'note_base.stp',
/* time_stamp */ '2026-03-23T20:40:45+01:00',
/* author */ ('Wendelin'),
/* organization */ (''),
/* preprocessor_version */ 'ST-DEVELOPER v20',
/* originating_system */ 'Autodesk Inventor 2024',
/* authorisation */ '');

FILE_SCHEMA (('AUTOMOTIVE_DESIGN { 1 0 10303 214 3 1 1 }'));
ENDSEC;

DATA;
#10=MECHANICAL_DESIGN_GEOMETRIC_PRESENTATION_REPRESENTATION('',(#13),#657);
#11=SHAPE_REPRESENTATION_RELATIONSHIP('SRR','None',#664,#12);
#12=ADVANCED_BREP_SHAPE_REPRESENTATION('',(#14),#656);
#13=STYLED_ITEM('',(#673),#14);
#14=MANIFOLD_SOLID_BREP('Volumenk\X\F6rper2',#366);
#15=ELLIPSE('',#419,1.41421356237309,1.);
#16=ELLIPSE('',#421,1.41421356237309,1.);
#17=TOROIDAL_SURFACE('',#408,2.,1.);
#18=TOROIDAL_SURFACE('',#410,2.,1.);
#19=TOROIDAL_SURFACE('',#412,2.6,1.);
#20=B_SPLINE_CURVE_WITH_KNOTS('',3,(#605,#606,#607,#608,#609,#610),
 .UNSPECIFIED.,.F.,.F.,(4,2,4),(0.505532240038509,0.581995466601179,0.699558285734088),
 .UNSPECIFIED.);
#21=B_SPLINE_CURVE_WITH_KNOTS('',3,(#616,#617,#618,#619,#620,#621),
 .UNSPECIFIED.,.F.,.F.,(4,2,4),(0.,0.117562819132908,0.194026045695578),
 .UNSPECIFIED.);
#22=CYLINDRICAL_SURFACE('',#391,1.);
#23=CYLINDRICAL_SURFACE('',#397,5.);
#24=CYLINDRICAL_SURFACE('',#403,2.);
#25=CYLINDRICAL_SURFACE('',#416,1.6);
#26=CYLINDRICAL_SURFACE('',#418,1.);
#27=CYLINDRICAL_SURFACE('',#420,1.);
#28=CYLINDRICAL_SURFACE('',#422,1.);
#29=CYLINDRICAL_SURFACE('',#428,2.);
#30=FACE_BOUND('',#72,.T.);
#31=FACE_BOUND('',#81,.T.);
#32=FACE_BOUND('',#90,.T.);
#33=CIRCLE('',#390,2.6);
#34=CIRCLE('',#392,1.);
#35=CIRCLE('',#393,0.999999999999996);
#36=CIRCLE('',#395,2.);
#37=CIRCLE('',#396,2.);
#38=CIRCLE('',#398,5.);
#39=CIRCLE('',#399,5.);
#40=CIRCLE('',#404,2.);
#41=CIRCLE('',#405,2.);
#42=CIRCLE('',#407,2.);
#43=CIRCLE('',#409,1.);
#44=CIRCLE('',#411,1.);
#45=CIRCLE('',#413,1.);
#46=CIRCLE('',#414,1.6);
#47=CIRCLE('',#415,1.6);
#48=CIRCLE('',#417,1.6);
#49=CIRCLE('',#424,2.);
#50=FACE_OUTER_BOUND('',#71,.T.);
#51=FACE_OUTER_BOUND('',#73,.T.);
#52=FACE_OUTER_BOUND('',#74,.T.);
#53=FACE_OUTER_BOUND('',#75,.T.);
#54=FACE_OUTER_BOUND('',#76,.T.);
#55=FACE_OUTER_BOUND('',#77,.T.);
#56=FACE_OUTER_BOUND('',#78,.T.);
#57=FACE_OUTER_BOUND('',#79,.T.);
#58=FACE_OUTER_BOUND('',#80,.T.);
#59=FACE_OUTER_BOUND('',#82,.T.);
#60=FACE_OUTER_BOUND('',#83,.T.);
#61=FACE_OUTER_BOUND('',#84,.T.);
#62=FACE_OUTER_BOUND('',#85,.T.);
#63=FACE_OUTER_BOUND('',#86,.T.);
#64=FACE_OUTER_BOUND('',#87,.T.);
#65=FACE_OUTER_BOUND('',#88,.T.);
#66=FACE_OUTER_BOUND('',#89,.T.);
#67=FACE_OUTER_BOUND('',#91,.T.);
#68=FACE_OUTER_BOUND('',#92,.T.);
#69=FACE_OUTER_BOUND('',#93,.T.);
#70=FACE_OUTER_BOUND('',#94,.T.);
#71=EDGE_LOOP('',(#235,#236,#237,#238));
#72=EDGE_LOOP('',(#239));
#73=EDGE_LOOP('',(#240,#241,#242,#243));
#74=EDGE_LOOP('',(#244,#245,#246,#247,#248,#249));
#75=EDGE_LOOP('',(#250,#251,#252,#253));
#76=EDGE_LOOP('',(#254,#255,#256,#257));
#77=EDGE_LOOP('',(#258,#259,#260,#261));
#78=EDGE_LOOP('',(#262,#263,#264,#265));
#79=EDGE_LOOP('',(#266,#267,#268,#269));
#80=EDGE_LOOP('',(#270,#271,#272,#273,#274,#275,#276,#277,#278,#279));
#81=EDGE_LOOP('',(#280));
#82=EDGE_LOOP('',(#281,#282,#283,#284));
#83=EDGE_LOOP('',(#285,#286,#287,#288));
#84=EDGE_LOOP('',(#289,#290,#291,#292,#293));
#85=EDGE_LOOP('',(#294,#295,#296,#297,#298));
#86=EDGE_LOOP('',(#299,#300,#301,#302));
#87=EDGE_LOOP('',(#303,#304,#305,#306));
#88=EDGE_LOOP('',(#307,#308,#309,#310));
#89=EDGE_LOOP('',(#311,#312,#313,#314,#315,#316,#317,#318,#319,#320));
#90=EDGE_LOOP('',(#321));
#91=EDGE_LOOP('',(#322,#323,#324,#325));
#92=EDGE_LOOP('',(#326));
#93=EDGE_LOOP('',(#327,#328,#329,#330));
#94=EDGE_LOOP('',(#331,#332,#333,#334));
#95=LINE('',#544,#124);
#96=LINE('',#546,#125);
#97=LINE('',#548,#126);
#98=LINE('',#549,#127);
#99=LINE('',#555,#128);
#100=LINE('',#561,#129);
#101=LINE('',#563,#130);
#102=LINE('',#567,#131);
#103=LINE('',#571,#132);
#104=LINE('',#577,#133);
#105=LINE('',#578,#134);
#106=LINE('',#579,#135);
#107=LINE('',#583,#136);
#108=LINE('',#585,#137);
#109=LINE('',#587,#138);
#110=LINE('',#588,#139);
#111=LINE('',#592,#140);
#112=LINE('',#593,#141);
#113=LINE('',#594,#142);
#114=LINE('',#600,#143);
#115=LINE('',#602,#144);
#116=LINE('',#604,#145);
#117=LINE('',#633,#146);
#118=LINE('',#637,#147);
#119=LINE('',#641,#148);
#120=LINE('',#644,#149);
#121=LINE('',#645,#150);
#122=LINE('',#649,#151);
#123=LINE('',#653,#152);
#124=VECTOR('',#433,10.);
#125=VECTOR('',#434,10.);
#126=VECTOR('',#435,10.);
#127=VECTOR('',#436,10.);
#128=VECTOR('',#441,10.);
#129=VECTOR('',#448,10.);
#130=VECTOR('',#449,10.);
#131=VECTOR('',#454,10.);
#132=VECTOR('',#457,10.);
#133=VECTOR('',#464,10.);
#134=VECTOR('',#465,10.);
#135=VECTOR('',#466,10.);
#136=VECTOR('',#469,10.);
#137=VECTOR('',#470,10.);
#138=VECTOR('',#471,10.);
#139=VECTOR('',#472,10.);
#140=VECTOR('',#475,10.);
#141=VECTOR('',#476,10.);
#142=VECTOR('',#477,10.);
#143=VECTOR('',#486,10.);
#144=VECTOR('',#487,10.);
#145=VECTOR('',#488,10.);
#146=VECTOR('',#511,1.6);
#147=VECTOR('',#516,10.);
#148=VECTOR('',#523,10.);
#149=VECTOR('',#526,10.);
#150=VECTOR('',#527,10.);
#151=VECTOR('',#532,10.);
#152=VECTOR('',#539,2.);
#153=VERTEX_POINT('',#542);
#154=VERTEX_POINT('',#543);
#155=VERTEX_POINT('',#545);
#156=VERTEX_POINT('',#547);
#157=VERTEX_POINT('',#550);
#158=VERTEX_POINT('',#553);
#159=VERTEX_POINT('',#554);
#160=VERTEX_POINT('',#559);
#161=VERTEX_POINT('',#560);
#162=VERTEX_POINT('',#562);
#163=VERTEX_POINT('',#565);
#164=VERTEX_POINT('',#569);
#165=VERTEX_POINT('',#570);
#166=VERTEX_POINT('',#575);
#167=VERTEX_POINT('',#576);
#168=VERTEX_POINT('',#581);
#169=VERTEX_POINT('',#582);
#170=VERTEX_POINT('',#584);
#171=VERTEX_POINT('',#586);
#172=VERTEX_POINT('',#590);
#173=VERTEX_POINT('',#591);
#174=VERTEX_POINT('',#599);
#175=VERTEX_POINT('',#601);
#176=VERTEX_POINT('',#603);
#177=VERTEX_POINT('',#611);
#178=VERTEX_POINT('',#614);
#179=VERTEX_POINT('',#625);
#180=VERTEX_POINT('',#627);
#181=VERTEX_POINT('',#631);
#182=VERTEX_POINT('',#635);
#183=VERTEX_POINT('',#643);
#184=VERTEX_POINT('',#646);
#185=EDGE_CURVE('',#153,#154,#95,.T.);
#186=EDGE_CURVE('',#155,#153,#96,.T.);
#187=EDGE_CURVE('',#156,#155,#97,.T.);
#188=EDGE_CURVE('',#154,#156,#98,.T.);
#189=EDGE_CURVE('',#157,#157,#33,.T.);
#190=EDGE_CURVE('',#158,#159,#99,.T.);
#191=EDGE_CURVE('',#159,#153,#34,.T.);
#192=EDGE_CURVE('',#158,#154,#35,.T.);
#193=EDGE_CURVE('',#160,#161,#100,.T.);
#194=EDGE_CURVE('',#162,#160,#101,.T.);
#195=EDGE_CURVE('',#159,#162,#36,.T.);
#196=EDGE_CURVE('',#163,#158,#37,.T.);
#197=EDGE_CURVE('',#161,#163,#102,.T.);
#198=EDGE_CURVE('',#164,#165,#103,.T.);
#199=EDGE_CURVE('',#165,#160,#38,.T.);
#200=EDGE_CURVE('',#161,#164,#39,.T.);
#201=EDGE_CURVE('',#166,#167,#104,.T.);
#202=EDGE_CURVE('',#165,#167,#105,.T.);
#203=EDGE_CURVE('',#166,#164,#106,.T.);
#204=EDGE_CURVE('',#168,#169,#107,.T.);
#205=EDGE_CURVE('',#169,#170,#108,.T.);
#206=EDGE_CURVE('',#171,#170,#109,.T.);
#207=EDGE_CURVE('',#171,#168,#110,.T.);
#208=EDGE_CURVE('',#172,#173,#111,.T.);
#209=EDGE_CURVE('',#167,#172,#112,.T.);
#210=EDGE_CURVE('',#166,#173,#113,.T.);
#211=EDGE_CURVE('',#170,#172,#40,.T.);
#212=EDGE_CURVE('',#173,#171,#41,.T.);
#213=EDGE_CURVE('',#169,#174,#114,.T.);
#214=EDGE_CURVE('',#175,#174,#115,.T.);
#215=EDGE_CURVE('',#176,#175,#116,.T.);
#216=EDGE_CURVE('',#162,#176,#20,.T.);
#217=EDGE_CURVE('',#177,#177,#42,.T.);
#218=EDGE_CURVE('',#154,#178,#43,.T.);
#219=EDGE_CURVE('',#178,#163,#21,.T.);
#220=EDGE_CURVE('',#176,#153,#44,.T.);
#221=EDGE_CURVE('',#157,#179,#45,.T.);
#222=EDGE_CURVE('',#179,#180,#46,.T.);
#223=EDGE_CURVE('',#180,#179,#47,.T.);
#224=EDGE_CURVE('',#181,#181,#48,.T.);
#225=EDGE_CURVE('',#181,#180,#117,.T.);
#226=EDGE_CURVE('',#156,#182,#15,.T.);
#227=EDGE_CURVE('',#182,#178,#118,.T.);
#228=EDGE_CURVE('',#175,#155,#16,.T.);
#229=EDGE_CURVE('',#175,#182,#119,.T.);
#230=EDGE_CURVE('',#183,#182,#120,.T.);
#231=EDGE_CURVE('',#183,#168,#121,.T.);
#232=EDGE_CURVE('',#184,#184,#49,.T.);
#233=EDGE_CURVE('',#174,#183,#122,.T.);
#234=EDGE_CURVE('',#177,#184,#123,.T.);
#235=ORIENTED_EDGE('',*,*,#185,.F.);
#236=ORIENTED_EDGE('',*,*,#186,.F.);
#237=ORIENTED_EDGE('',*,*,#187,.F.);
#238=ORIENTED_EDGE('',*,*,#188,.F.);
#239=ORIENTED_EDGE('',*,*,#189,.F.);
#240=ORIENTED_EDGE('',*,*,#190,.T.);
#241=ORIENTED_EDGE('',*,*,#191,.T.);
#242=ORIENTED_EDGE('',*,*,#185,.T.);
#243=ORIENTED_EDGE('',*,*,#192,.F.);
#244=ORIENTED_EDGE('',*,*,#193,.F.);
#245=ORIENTED_EDGE('',*,*,#194,.F.);
#246=ORIENTED_EDGE('',*,*,#195,.F.);
#247=ORIENTED_EDGE('',*,*,#190,.F.);
#248=ORIENTED_EDGE('',*,*,#196,.F.);
#249=ORIENTED_EDGE('',*,*,#197,.F.);
#250=ORIENTED_EDGE('',*,*,#198,.T.);
#251=ORIENTED_EDGE('',*,*,#199,.T.);
#252=ORIENTED_EDGE('',*,*,#193,.T.);
#253=ORIENTED_EDGE('',*,*,#200,.T.);
#254=ORIENTED_EDGE('',*,*,#201,.T.);
#255=ORIENTED_EDGE('',*,*,#202,.F.);
#256=ORIENTED_EDGE('',*,*,#198,.F.);
#257=ORIENTED_EDGE('',*,*,#203,.F.);
#258=ORIENTED_EDGE('',*,*,#204,.T.);
#259=ORIENTED_EDGE('',*,*,#205,.T.);
#260=ORIENTED_EDGE('',*,*,#206,.F.);
#261=ORIENTED_EDGE('',*,*,#207,.T.);
#262=ORIENTED_EDGE('',*,*,#208,.F.);
#263=ORIENTED_EDGE('',*,*,#209,.F.);
#264=ORIENTED_EDGE('',*,*,#201,.F.);
#265=ORIENTED_EDGE('',*,*,#210,.T.);
#266=ORIENTED_EDGE('',*,*,#206,.T.);
#267=ORIENTED_EDGE('',*,*,#211,.T.);
#268=ORIENTED_EDGE('',*,*,#208,.T.);
#269=ORIENTED_EDGE('',*,*,#212,.T.);
#270=ORIENTED_EDGE('',*,*,#211,.F.);
#271=ORIENTED_EDGE('',*,*,#205,.F.);
#272=ORIENTED_EDGE('',*,*,#213,.T.);
#273=ORIENTED_EDGE('',*,*,#214,.F.);
#274=ORIENTED_EDGE('',*,*,#215,.F.);
#275=ORIENTED_EDGE('',*,*,#216,.F.);
#276=ORIENTED_EDGE('',*,*,#194,.T.);
#277=ORIENTED_EDGE('',*,*,#199,.F.);
#278=ORIENTED_EDGE('',*,*,#202,.T.);
#279=ORIENTED_EDGE('',*,*,#209,.T.);
#280=ORIENTED_EDGE('',*,*,#217,.T.);
#281=ORIENTED_EDGE('',*,*,#192,.T.);
#282=ORIENTED_EDGE('',*,*,#218,.T.);
#283=ORIENTED_EDGE('',*,*,#219,.T.);
#284=ORIENTED_EDGE('',*,*,#196,.T.);
#285=ORIENTED_EDGE('',*,*,#216,.T.);
#286=ORIENTED_EDGE('',*,*,#220,.T.);
#287=ORIENTED_EDGE('',*,*,#191,.F.);
#288=ORIENTED_EDGE('',*,*,#195,.T.);
#289=ORIENTED_EDGE('',*,*,#189,.T.);
#290=ORIENTED_EDGE('',*,*,#221,.T.);
#291=ORIENTED_EDGE('',*,*,#222,.T.);
#292=ORIENTED_EDGE('',*,*,#223,.T.);
#293=ORIENTED_EDGE('',*,*,#221,.F.);
#294=ORIENTED_EDGE('',*,*,#224,.F.);
#295=ORIENTED_EDGE('',*,*,#225,.T.);
#296=ORIENTED_EDGE('',*,*,#222,.F.);
#297=ORIENTED_EDGE('',*,*,#223,.F.);
#298=ORIENTED_EDGE('',*,*,#225,.F.);
#299=ORIENTED_EDGE('',*,*,#218,.F.);
#300=ORIENTED_EDGE('',*,*,#188,.T.);
#301=ORIENTED_EDGE('',*,*,#226,.T.);
#302=ORIENTED_EDGE('',*,*,#227,.T.);
#303=ORIENTED_EDGE('',*,*,#220,.F.);
#304=ORIENTED_EDGE('',*,*,#215,.T.);
#305=ORIENTED_EDGE('',*,*,#228,.T.);
#306=ORIENTED_EDGE('',*,*,#186,.T.);
#307=ORIENTED_EDGE('',*,*,#187,.T.);
#308=ORIENTED_EDGE('',*,*,#228,.F.);
#309=ORIENTED_EDGE('',*,*,#229,.T.);
#310=ORIENTED_EDGE('',*,*,#226,.F.);
#311=ORIENTED_EDGE('',*,*,#212,.F.);
#312=ORIENTED_EDGE('',*,*,#210,.F.);
#313=ORIENTED_EDGE('',*,*,#203,.T.);
#314=ORIENTED_EDGE('',*,*,#200,.F.);
#315=ORIENTED_EDGE('',*,*,#197,.T.);
#316=ORIENTED_EDGE('',*,*,#219,.F.);
#317=ORIENTED_EDGE('',*,*,#227,.F.);
#318=ORIENTED_EDGE('',*,*,#230,.F.);
#319=ORIENTED_EDGE('',*,*,#231,.T.);
#320=ORIENTED_EDGE('',*,*,#207,.F.);
#321=ORIENTED_EDGE('',*,*,#232,.T.);
#322=ORIENTED_EDGE('',*,*,#229,.F.);
#323=ORIENTED_EDGE('',*,*,#214,.T.);
#324=ORIENTED_EDGE('',*,*,#233,.T.);
#325=ORIENTED_EDGE('',*,*,#230,.T.);
#326=ORIENTED_EDGE('',*,*,#224,.T.);
#327=ORIENTED_EDGE('',*,*,#204,.F.);
#328=ORIENTED_EDGE('',*,*,#231,.F.);
#329=ORIENTED_EDGE('',*,*,#233,.F.);
#330=ORIENTED_EDGE('',*,*,#213,.F.);
#331=ORIENTED_EDGE('',*,*,#217,.F.);
#332=ORIENTED_EDGE('',*,*,#234,.T.);
#333=ORIENTED_EDGE('',*,*,#232,.F.);
#334=ORIENTED_EDGE('',*,*,#234,.F.);
#335=PLANE('',#389);
#336=PLANE('',#394);
#337=PLANE('',#400);
#338=PLANE('',#401);
#339=PLANE('',#402);
#340=PLANE('',#406);
#341=PLANE('',#423);
#342=PLANE('',#425);
#343=PLANE('',#426);
#344=PLANE('',#427);
#345=ADVANCED_FACE('',(#50,#30),#335,.T.);
#346=ADVANCED_FACE('',(#51),#22,.F.);
#347=ADVANCED_FACE('',(#52),#336,.T.);
#348=ADVANCED_FACE('',(#53),#23,.T.);
#349=ADVANCED_FACE('',(#54),#337,.F.);
#350=ADVANCED_FACE('',(#55),#338,.T.);
#351=ADVANCED_FACE('',(#56),#339,.T.);
#352=ADVANCED_FACE('',(#57),#24,.T.);
#353=ADVANCED_FACE('',(#58,#31),#340,.T.);
#354=ADVANCED_FACE('',(#59),#17,.F.);
#355=ADVANCED_FACE('',(#60),#18,.F.);
#356=ADVANCED_FACE('',(#61),#19,.F.);
#357=ADVANCED_FACE('',(#62),#25,.T.);
#358=ADVANCED_FACE('',(#63),#26,.T.);
#359=ADVANCED_FACE('',(#64),#27,.T.);
#360=ADVANCED_FACE('',(#65),#28,.T.);
#361=ADVANCED_FACE('',(#66,#32),#341,.T.);
#362=ADVANCED_FACE('',(#67),#342,.T.);
#363=ADVANCED_FACE('',(#68),#343,.T.);
#364=ADVANCED_FACE('',(#69),#344,.F.);
#365=ADVANCED_FACE('',(#70),#29,.F.);
#366=CLOSED_SHELL('',(#345,#346,#347,#348,#349,#350,#351,#352,#353,#354,
#355,#356,#357,#358,#359,#360,#361,#362,#363,#364,#365));
#367=DERIVED_UNIT_ELEMENT(#370,1.);
#368=DERIVED_UNIT_ELEMENT(#659,-3.);
#369=DIMENSIONAL_EXPONENTS(0.,1.,0.,0.,0.,0.,0.);
#370=(
CONVERSION_BASED_UNIT('gram',#372)
MASS_UNIT()
NAMED_UNIT(#369)
);
#371=(
MASS_UNIT()
NAMED_UNIT(*)
SI_UNIT(.KILO.,.GRAM.)
);
#372=MASS_MEASURE_WITH_UNIT(MASS_MEASURE(0.001),#371);
#373=DERIVED_UNIT((#367,#368));
#374=MEASURE_REPRESENTATION_ITEM('density measure',
POSITIVE_RATIO_MEASURE(1.),#373);
#375=PROPERTY_DEFINITION_REPRESENTATION(#380,#377);
#376=PROPERTY_DEFINITION_REPRESENTATION(#381,#378);
#377=REPRESENTATION('material name',(#379),#656);
#378=REPRESENTATION('density',(#374),#656);
#379=DESCRIPTIVE_REPRESENTATION_ITEM('Generisch','Generisch');
#380=PROPERTY_DEFINITION('material property','material name',#666);
#381=PROPERTY_DEFINITION('material property','density of part',#666);
#382=DATE_TIME_ROLE('creation_date');
#383=APPLIED_DATE_AND_TIME_ASSIGNMENT(#384,#382,(#666));
#384=DATE_AND_TIME(#385,#386);
#385=CALENDAR_DATE(2026,4,1);
#386=LOCAL_TIME(0,0,0.,#387);
#387=COORDINATED_UNIVERSAL_TIME_OFFSET(0,0,.BEHIND.);
#388=AXIS2_PLACEMENT_3D('',#540,#429,#430);
#389=AXIS2_PLACEMENT_3D('',#541,#431,#432);
#390=AXIS2_PLACEMENT_3D('',#551,#437,#438);
#391=AXIS2_PLACEMENT_3D('',#552,#439,#440);
#392=AXIS2_PLACEMENT_3D('',#556,#442,#443);
#393=AXIS2_PLACEMENT_3D('',#557,#444,#445);
#394=AXIS2_PLACEMENT_3D('',#558,#446,#447);
#395=AXIS2_PLACEMENT_3D('',#564,#450,#451);
#396=AXIS2_PLACEMENT_3D('',#566,#452,#453);
#397=AXIS2_PLACEMENT_3D('',#568,#455,#456);
#398=AXIS2_PLACEMENT_3D('',#572,#458,#459);
#399=AXIS2_PLACEMENT_3D('',#573,#460,#461);
#400=AXIS2_PLACEMENT_3D('',#574,#462,#463);
#401=AXIS2_PLACEMENT_3D('',#580,#467,#468);
#402=AXIS2_PLACEMENT_3D('',#589,#473,#474);
#403=AXIS2_PLACEMENT_3D('',#595,#478,#479);
#404=AXIS2_PLACEMENT_3D('',#596,#480,#481);
#405=AXIS2_PLACEMENT_3D('',#597,#482,#483);
#406=AXIS2_PLACEMENT_3D('',#598,#484,#485);
#407=AXIS2_PLACEMENT_3D('',#612,#489,#490);
#408=AXIS2_PLACEMENT_3D('',#613,#491,#492);
#409=AXIS2_PLACEMENT_3D('',#615,#493,#494);
#410=AXIS2_PLACEMENT_3D('',#622,#495,#496);
#411=AXIS2_PLACEMENT_3D('',#623,#497,#498);
#412=AXIS2_PLACEMENT_3D('',#624,#499,#500);
#413=AXIS2_PLACEMENT_3D('',#626,#501,#502);
#414=AXIS2_PLACEMENT_3D('',#628,#503,#504);
#415=AXIS2_PLACEMENT_3D('',#629,#505,#506);
#416=AXIS2_PLACEMENT_3D('',#630,#507,#508);
#417=AXIS2_PLACEMENT_3D('',#632,#509,#510);
#418=AXIS2_PLACEMENT_3D('',#634,#512,#513);
#419=AXIS2_PLACEMENT_3D('',#636,#514,#515);
#420=AXIS2_PLACEMENT_3D('',#638,#517,#518);
#421=AXIS2_PLACEMENT_3D('',#639,#519,#520);
#422=AXIS2_PLACEMENT_3D('',#640,#521,#522);
#423=AXIS2_PLACEMENT_3D('',#642,#524,#525);
#424=AXIS2_PLACEMENT_3D('',#647,#528,#529);
#425=AXIS2_PLACEMENT_3D('',#648,#530,#531);
#426=AXIS2_PLACEMENT_3D('',#650,#533,#534);
#427=AXIS2_PLACEMENT_3D('',#651,#535,#536);
#428=AXIS2_PLACEMENT_3D('',#652,#537,#538);
#429=DIRECTION('axis',(0.,0.,1.));
#430=DIRECTION('refdir',(1.,0.,0.));
#431=DIRECTION('center_axis',(0.,0.,1.));
#432=DIRECTION('ref_axis',(1.,0.,0.));
#433=DIRECTION('',(-1.,0.,0.));
#434=DIRECTION('',(0.,-1.,0.));
#435=DIRECTION('',(1.,0.,0.));
#436=DIRECTION('',(0.,1.,0.));
#437=DIRECTION('center_axis',(0.,0.,1.));
#438=DIRECTION('ref_axis',(0.,1.,0.));
#439=DIRECTION('center_axis',(1.,0.,0.));
#440=DIRECTION('ref_axis',(0.,-0.707106781186548,-0.707106781186547));
#441=DIRECTION('',(1.,0.,0.));
#442=DIRECTION('center_axis',(1.,0.,0.));
#443=DIRECTION('ref_axis',(0.,-1.,0.));
#444=DIRECTION('center_axis',(1.,0.,-1.38777878078145E-16));
#445=DIRECTION('ref_axis',(0.,-1.,0.));
#446=DIRECTION('center_axis',(0.,1.,0.));
#447=DIRECTION('ref_axis',(0.,0.,-1.));
#448=DIRECTION('',(-1.,0.,0.));
#449=DIRECTION('',(0.,0.,1.));
#450=DIRECTION('center_axis',(0.,1.,0.));
#451=DIRECTION('ref_axis',(0.707106781186549,0.,0.707106781186546));
#452=DIRECTION('center_axis',(0.,1.,0.));
#453=DIRECTION('ref_axis',(-0.707106781186547,0.,0.707106781186548));
#454=DIRECTION('',(0.,0.,-1.));
#455=DIRECTION('center_axis',(-1.,0.,0.));
#456=DIRECTION('ref_axis',(0.,0.707106781186547,0.707106781186547));
#457=DIRECTION('',(1.,0.,0.));
#458=DIRECTION('center_axis',(-1.,0.,0.));
#459=DIRECTION('ref_axis',(0.,-0.707106781186547,0.707106781186547));
#460=DIRECTION('center_axis',(1.,0.,0.));
#461=DIRECTION('ref_axis',(0.,-0.707106781186547,0.707106781186547));
#462=DIRECTION('center_axis',(0.,1.,0.));
#463=DIRECTION('ref_axis',(0.,0.,1.));
#464=DIRECTION('',(1.,0.,0.));
#465=DIRECTION('',(0.,0.,-1.));
#466=DIRECTION('',(0.,0.,1.));
#467=DIRECTION('center_axis',(0.,-1.,0.));
#468=DIRECTION('ref_axis',(0.,0.,-1.));
#469=DIRECTION('',(1.,0.,0.));
#470=DIRECTION('',(0.,0.,1.));
#471=DIRECTION('',(1.,0.,0.));
#472=DIRECTION('',(0.,0.,-1.));
#473=DIRECTION('center_axis',(0.,0.,1.));
#474=DIRECTION('ref_axis',(-1.,0.,0.));
#475=DIRECTION('',(-1.,0.,0.));
#476=DIRECTION('',(0.,-1.,0.));
#477=DIRECTION('',(0.,-1.,0.));
#478=DIRECTION('center_axis',(-1.,0.,0.));
#479=DIRECTION('ref_axis',(0.,-0.707106781186548,0.707106781186548));
#480=DIRECTION('center_axis',(-1.,0.,0.));
#481=DIRECTION('ref_axis',(0.,-0.707106781186548,0.707106781186548));
#482=DIRECTION('center_axis',(1.,0.,0.));
#483=DIRECTION('ref_axis',(0.,-0.707106781186548,0.707106781186548));
#484=DIRECTION('center_axis',(1.,0.,0.));
#485=DIRECTION('ref_axis',(0.,1.,0.));
#486=DIRECTION('',(0.,1.,0.));
#487=DIRECTION('',(0.,0.,-1.));
#488=DIRECTION('',(0.,1.,0.));
#489=DIRECTION('center_axis',(-1.,0.,0.));
#490=DIRECTION('ref_axis',(0.,0.,-1.));
#491=DIRECTION('center_axis',(0.,1.,0.));
#492=DIRECTION('ref_axis',(0.,0.,1.));
#493=DIRECTION('center_axis',(0.,-1.,0.));
#494=DIRECTION('ref_axis',(-0.707106781186547,0.,0.707106781186548));
#495=DIRECTION('center_axis',(0.,1.,0.));
#496=DIRECTION('ref_axis',(0.,0.,1.));
#497=DIRECTION('center_axis',(0.,-1.,0.));
#498=DIRECTION('ref_axis',(0.707106781186549,0.,0.707106781186546));
#499=DIRECTION('center_axis',(0.,0.,1.));
#500=DIRECTION('ref_axis',(1.,0.,0.));
#501=DIRECTION('center_axis',(0.,-1.,0.));
#502=DIRECTION('ref_axis',(-1.,0.,0.));
#503=DIRECTION('center_axis',(0.,0.,-1.));
#504=DIRECTION('ref_axis',(0.,1.,0.));
#505=DIRECTION('center_axis',(0.,0.,-1.));
#506=DIRECTION('ref_axis',(0.,1.,0.));
#507=DIRECTION('center_axis',(0.,0.,-1.));
#508=DIRECTION('ref_axis',(-1.,0.,0.));
#509=DIRECTION('center_axis',(0.,0.,1.));
#510=DIRECTION('ref_axis',(-1.,0.,0.));
#511=DIRECTION('',(0.,0.,-1.));
#512=DIRECTION('center_axis',(0.,-1.,0.));
#513=DIRECTION('ref_axis',(-0.707106781186548,0.,0.707106781186548));
#514=DIRECTION('center_axis',(-0.707106781186543,-0.707106781186552,7.85046229341883E-16));
#515=DIRECTION('ref_axis',(-0.707106781186552,0.707106781186543,7.85046229341892E-16));
#516=DIRECTION('',(0.,-1.,0.));
#517=DIRECTION('center_axis',(0.,1.,0.));
#518=DIRECTION('ref_axis',(0.707106781186549,0.,0.707106781186546));
#519=DIRECTION('center_axis',(0.707106781186543,-0.707106781186552,0.));
#520=DIRECTION('ref_axis',(-0.707106781186552,-0.707106781186543,0.));
#521=DIRECTION('center_axis',(1.,0.,0.));
#522=DIRECTION('ref_axis',(0.,0.70710678118654,0.707106781186555));
#523=DIRECTION('',(-1.,0.,0.));
#524=DIRECTION('center_axis',(-1.,0.,0.));
#525=DIRECTION('ref_axis',(0.,-1.,0.));
#526=DIRECTION('',(0.,0.,1.));
#527=DIRECTION('',(0.,-1.,0.));
#528=DIRECTION('center_axis',(1.,0.,0.));
#529=DIRECTION('ref_axis',(0.,0.,-1.));
#530=DIRECTION('center_axis',(0.,1.,0.));
#531=DIRECTION('ref_axis',(0.,0.,1.));
#532=DIRECTION('',(-1.,0.,0.));
#533=DIRECTION('center_axis',(0.,0.,1.));
#534=DIRECTION('ref_axis',(0.,1.,0.));
#535=DIRECTION('center_axis',(0.,0.,1.));
#536=DIRECTION('ref_axis',(1.,0.,0.));
#537=DIRECTION('center_axis',(-1.,0.,0.));
#538=DIRECTION('ref_axis',(0.,0.,-1.));
#539=DIRECTION('',(-1.,0.,0.));
#540=CARTESIAN_POINT('',(0.,0.,0.));
#541=CARTESIAN_POINT('Origin',(12.5,35.,4.));
#542=CARTESIAN_POINT('',(24.,11.,4.));
#543=CARTESIAN_POINT('',(1.,11.,4.));
#544=CARTESIAN_POINT('',(18.75,11.,4.));
#545=CARTESIAN_POINT('',(24.,73.5,4.));
#546=CARTESIAN_POINT('',(24.,17.5,4.));
#547=CARTESIAN_POINT('',(1.,73.5,4.));
#548=CARTESIAN_POINT('',(12.5,73.5,4.));
#549=CARTESIAN_POINT('',(1.,52.5,4.));
#550=CARTESIAN_POINT('',(9.9,67.5,4.));
#551=CARTESIAN_POINT('Origin',(12.5,67.5,4.));
#552=CARTESIAN_POINT('Origin',(18.75,11.,5.));
#553=CARTESIAN_POINT('',(1.,10.,5.));
#554=CARTESIAN_POINT('',(24.,10.,5.));
#555=CARTESIAN_POINT('',(18.75,10.,5.));
#556=CARTESIAN_POINT('Origin',(24.,11.,5.));
#557=CARTESIAN_POINT('Origin',(1.,11.,5.));
#558=CARTESIAN_POINT('Origin',(25.,10.,12.));
#559=CARTESIAN_POINT('',(25.,10.,7.));
#560=CARTESIAN_POINT('',(0.,10.,7.));
#561=CARTESIAN_POINT('',(25.,10.,7.));
#562=CARTESIAN_POINT('',(25.,10.,4.73205080756888));
#563=CARTESIAN_POINT('',(25.,10.,4.));
#564=CARTESIAN_POINT('Origin',(24.,10.,3.));
#565=CARTESIAN_POINT('',(0.,10.,4.73205080756888));
#566=CARTESIAN_POINT('Origin',(1.,10.,3.));
#567=CARTESIAN_POINT('',(0.,10.,4.));
#568=CARTESIAN_POINT('Origin',(25.,5.,7.));
#569=CARTESIAN_POINT('',(0.,0.2,8.4));
#570=CARTESIAN_POINT('',(25.,0.2,8.4));
#571=CARTESIAN_POINT('',(25.,0.2,8.4));
#572=CARTESIAN_POINT('Origin',(25.,5.,7.));
#573=CARTESIAN_POINT('Origin',(0.,5.,7.));
#574=CARTESIAN_POINT('Origin',(12.5,0.2,6.));
#575=CARTESIAN_POINT('',(0.,0.2,4.));
#576=CARTESIAN_POINT('',(25.,0.2,4.));
#577=CARTESIAN_POINT('',(18.75,0.2,4.));
#578=CARTESIAN_POINT('',(25.,0.2,3.));
#579=CARTESIAN_POINT('',(0.,0.199999999999996,3.));
#580=CARTESIAN_POINT('Origin',(12.5,-7.8,2.));
#581=CARTESIAN_POINT('',(0.,-7.8,0.));
#582=CARTESIAN_POINT('',(25.,-7.8,0.));
#583=CARTESIAN_POINT('',(0.,-7.8,0.));
#584=CARTESIAN_POINT('',(25.,-7.8,2.));
#585=CARTESIAN_POINT('',(25.,-7.8,0.));
#586=CARTESIAN_POINT('',(0.,-7.8,2.));
#587=CARTESIAN_POINT('',(18.75,-7.8,2.));
#588=CARTESIAN_POINT('',(0.,-7.8,4.));
#589=CARTESIAN_POINT('Origin',(25.,0.2,4.));
#590=CARTESIAN_POINT('',(25.,-5.8,4.));
#591=CARTESIAN_POINT('',(0.,-5.8,4.));
#592=CARTESIAN_POINT('',(18.75,-5.8,4.));
#593=CARTESIAN_POINT('',(25.,0.2,4.));
#594=CARTESIAN_POINT('',(0.,0.2,4.));
#595=CARTESIAN_POINT('Origin',(18.75,-5.8,2.));
#596=CARTESIAN_POINT('Origin',(25.,-5.8,2.));
#597=CARTESIAN_POINT('Origin',(0.,-5.8,2.));
#598=CARTESIAN_POINT('Origin',(25.,0.,0.));
#599=CARTESIAN_POINT('',(25.,74.5,0.));
#600=CARTESIAN_POINT('',(25.,69.5,0.));
#601=CARTESIAN_POINT('',(25.,74.5,3.));
#602=CARTESIAN_POINT('',(25.,74.5,4.));
#603=CARTESIAN_POINT('',(25.,11.,3.));
#604=CARTESIAN_POINT('',(25.,17.5,3.));
#605=CARTESIAN_POINT('Ctrl Pts',(25.,10.,4.73205080756888));
#606=CARTESIAN_POINT('Ctrl Pts',(25.,10.,4.47717338569331));
#607=CARTESIAN_POINT('Ctrl Pts',(25.,10.0895719998978,4.18473047315088));
#608=CARTESIAN_POINT('Ctrl Pts',(25.,10.3960872838113,3.61522327220401));
#609=CARTESIAN_POINT('Ctrl Pts',(25.,10.722901777919,3.27709822208096));
#610=CARTESIAN_POINT('Ctrl Pts',(25.,11.,3.));
#611=CARTESIAN_POINT('',(25.,5.,10.));
#612=CARTESIAN_POINT('Origin',(25.,5.,8.));
#613=CARTESIAN_POINT('Origin',(1.,11.,3.));
#614=CARTESIAN_POINT('',(0.,11.,3.));
#615=CARTESIAN_POINT('Origin',(1.,11.,3.));
#616=CARTESIAN_POINT('Ctrl Pts',(0.,11.,3.));
#617=CARTESIAN_POINT('Ctrl Pts',(0.,10.722901777919,3.27709822208096));
#618=CARTESIAN_POINT('Ctrl Pts',(0.,10.3960872838113,3.61522327220401));
#619=CARTESIAN_POINT('Ctrl Pts',(0.,10.0895719998978,4.18473047315088));
#620=CARTESIAN_POINT('Ctrl Pts',(0.,10.,4.47717338569331));
#621=CARTESIAN_POINT('Ctrl Pts',(0.,10.,4.73205080756888));
#622=CARTESIAN_POINT('Origin',(24.,11.,3.));
#623=CARTESIAN_POINT('Origin',(24.,11.,3.));
#624=CARTESIAN_POINT('Origin',(12.5,67.5,5.));
#625=CARTESIAN_POINT('',(10.9,67.5,5.));
#626=CARTESIAN_POINT('Origin',(9.9,67.5,5.));
#627=CARTESIAN_POINT('',(14.1,67.5,5.));
#628=CARTESIAN_POINT('Origin',(12.5,67.5,5.));
#629=CARTESIAN_POINT('Origin',(12.5,67.5,5.));
#630=CARTESIAN_POINT('Origin',(12.5,67.5,9.));
#631=CARTESIAN_POINT('',(14.1,67.5,9.));
#632=CARTESIAN_POINT('Origin',(12.5,67.5,9.));
#633=CARTESIAN_POINT('',(14.1,67.5,9.));
#634=CARTESIAN_POINT('Origin',(1.,52.5,3.));
#635=CARTESIAN_POINT('',(0.,74.5,3.));
#636=CARTESIAN_POINT('Origin',(1.,73.5,3.));
#637=CARTESIAN_POINT('',(0.,52.5,3.));
#638=CARTESIAN_POINT('Origin',(24.,17.5,3.));
#639=CARTESIAN_POINT('Origin',(24.,73.5,3.));
#640=CARTESIAN_POINT('Origin',(12.5,73.5,3.));
#641=CARTESIAN_POINT('',(12.5,74.5,3.));
#642=CARTESIAN_POINT('Origin',(0.,70.,0.));
#643=CARTESIAN_POINT('',(0.,74.5,0.));
#644=CARTESIAN_POINT('',(0.,74.5,0.));
#645=CARTESIAN_POINT('',(0.,70.,0.));
#646=CARTESIAN_POINT('',(0.,5.,10.));
#647=CARTESIAN_POINT('Origin',(0.,5.,8.));
#648=CARTESIAN_POINT('Origin',(12.5,74.5,2.));
#649=CARTESIAN_POINT('',(25.,74.5,0.));
#650=CARTESIAN_POINT('Origin',(25.,65.9,9.));
#651=CARTESIAN_POINT('Origin',(12.5,35.,0.));
#652=CARTESIAN_POINT('Origin',(25.,5.,8.));
#653=CARTESIAN_POINT('',(25.,5.,10.));
#654=UNCERTAINTY_MEASURE_WITH_UNIT(LENGTH_MEASURE(0.01),#658,
'DISTANCE_ACCURACY_VALUE',
'Maximum model space distance between geometric entities at asserted c
onnectivities');
#655=UNCERTAINTY_MEASURE_WITH_UNIT(LENGTH_MEASURE(0.01),#658,
'DISTANCE_ACCURACY_VALUE',
'Maximum model space distance between geometric entities at asserted c
onnectivities');
#656=(
GEOMETRIC_REPRESENTATION_CONTEXT(3)
GLOBAL_UNCERTAINTY_ASSIGNED_CONTEXT((#654))
GLOBAL_UNIT_ASSIGNED_CONTEXT((#658,#660,#661))
REPRESENTATION_CONTEXT('','3D')
);
#657=(
GEOMETRIC_REPRESENTATION_CONTEXT(3)
GLOBAL_UNCERTAINTY_ASSIGNED_CONTEXT((#655))
GLOBAL_UNIT_ASSIGNED_CONTEXT((#658,#660,#661))
REPRESENTATION_CONTEXT('','3D')
);
#658=(
LENGTH_UNIT()
NAMED_UNIT(*)
SI_UNIT(.MILLI.,.METRE.)
);
#659=(
LENGTH_UNIT()
NAMED_UNIT(*)
SI_UNIT(.CENTI.,.METRE.)
);
#660=(
NAMED_UNIT(*)
PLANE_ANGLE_UNIT()
SI_UNIT($,.RADIAN.)
);
#661=(
NAMED_UNIT(*)
SI_UNIT($,.STERADIAN.)
SOLID_ANGLE_UNIT()
);
#662=SHAPE_DEFINITION_REPRESENTATION(#663,#664);
#663=PRODUCT_DEFINITION_SHAPE('',$,#666);
#664=SHAPE_REPRESENTATION('',(#388),#656);
#665=PRODUCT_DEFINITION_CONTEXT('part definition',#670,'design');
#666=PRODUCT_DEFINITION('note','note_base',#667,#665);
#667=PRODUCT_DEFINITION_FORMATION('',$,#672);
#668=PRODUCT_RELATED_PRODUCT_CATEGORY('note_base','note_base',(#672));
#669=APPLICATION_PROTOCOL_DEFINITION('international standard',
'automotive_design',2009,#670);
#670=APPLICATION_CONTEXT(
'Core Data for Automotive Mechanical Design Process');
#671=PRODUCT_CONTEXT('part definition',#670,'mechanical');
#672=PRODUCT('note','note_base',$,(#671));
#673=PRESENTATION_STYLE_ASSIGNMENT((#674));
#674=SURFACE_STYLE_USAGE(.BOTH.,#677);
#675=SURFACE_STYLE_RENDERING_WITH_PROPERTIES($,#681,(#676));
#676=SURFACE_STYLE_TRANSPARENT(0.);
#677=SURFACE_SIDE_STYLE('',(#678,#675));
#678=SURFACE_STYLE_FILL_AREA(#679);
#679=FILL_AREA_STYLE('',(#680));
#680=FILL_AREA_STYLE_COLOUR('',#681);
#681=COLOUR_RGB('',0.749019607843137,0.749019607843137,0.749019607843137);
ENDSEC;
END-ISO-10303-21;
