ISO-10303-21;
HEADER;
/* Generated by software containing ST-Developer
 * from STEP Tools, Inc. (www.steptools.com) 
 */

FILE_DESCRIPTION(
/* description */ (''),
/* implementation_level */ '2;1');

FILE_NAME(
/* name */ 'separator.stp',
/* time_stamp */ '2026-03-19T20:28:42+01:00',
/* author */ ('Wendelin'),
/* organization */ (''),
/* preprocessor_version */ 'ST-DEVELOPER v20',
/* originating_system */ 'Autodesk Inventor 2024',
/* authorisation */ '');

FILE_SCHEMA (('AUTOMOTIVE_DESIGN { 1 0 10303 214 3 1 1 }'));
ENDSEC;

DATA;
#10=MECHANICAL_DESIGN_GEOMETRIC_PRESENTATION_REPRESENTATION('',(#29,#30,
#31),#415);
#11=ITEM_DEFINED_TRANSFORMATION($,$,#259,#286);
#12=ITEM_DEFINED_TRANSFORMATION($,$,#268,#287);
#13=ITEM_DEFINED_TRANSFORMATION($,$,#277,#288);
#14=(
REPRESENTATION_RELATIONSHIP($,$,#432,#431)
REPRESENTATION_RELATIONSHIP_WITH_TRANSFORMATION(#11)
SHAPE_REPRESENTATION_RELATIONSHIP()
);
#15=(
REPRESENTATION_RELATIONSHIP($,$,#433,#431)
REPRESENTATION_RELATIONSHIP_WITH_TRANSFORMATION(#12)
SHAPE_REPRESENTATION_RELATIONSHIP()
);
#16=(
REPRESENTATION_RELATIONSHIP($,$,#434,#431)
REPRESENTATION_RELATIONSHIP_WITH_TRANSFORMATION(#13)
SHAPE_REPRESENTATION_RELATIONSHIP()
);
#17=CONTEXT_DEPENDENT_SHAPE_REPRESENTATION(#14,#428);
#18=CONTEXT_DEPENDENT_SHAPE_REPRESENTATION(#15,#429);
#19=CONTEXT_DEPENDENT_SHAPE_REPRESENTATION(#16,#430);
#20=NEXT_ASSEMBLY_USAGE_OCCURRENCE('0_2_sep:1','0_2_sep:1','0_2_sep:1',
#436,#437,'0_2_sep:1');
#21=NEXT_ASSEMBLY_USAGE_OCCURRENCE('0_3_sep:1','0_3_sep:1','0_3_sep:1',
#436,#438,'0_3_sep:1');
#22=NEXT_ASSEMBLY_USAGE_OCCURRENCE('0_4_sep:1','0_4_sep:1','0_4_sep:1',
#436,#439,'0_4_sep:1');
#23=SHAPE_REPRESENTATION_RELATIONSHIP('SRR','None',#432,#26);
#24=SHAPE_REPRESENTATION_RELATIONSHIP('SRR','None',#433,#27);
#25=SHAPE_REPRESENTATION_RELATIONSHIP('SRR','None',#434,#28);
#26=ADVANCED_BREP_SHAPE_REPRESENTATION('',(#32),#412);
#27=ADVANCED_BREP_SHAPE_REPRESENTATION('',(#33),#413);
#28=ADVANCED_BREP_SHAPE_REPRESENTATION('',(#34),#414);
#29=STYLED_ITEM('',(#225),#32);
#30=STYLED_ITEM('',(#225),#33);
#31=STYLED_ITEM('',(#225),#34);
#32=MANIFOLD_SOLID_BREP('Volumenk\X\F6rper1',#185);
#33=MANIFOLD_SOLID_BREP('Volumenk\X\F6rper1',#186);
#34=MANIFOLD_SOLID_BREP('Volumenk\X\F6rper1',#187);
#35=FACE_BOUND('',#62,.T.);
#36=FACE_BOUND('',#64,.T.);
#37=FACE_BOUND('',#68,.T.);
#38=FACE_BOUND('',#70,.T.);
#39=FACE_BOUND('',#74,.T.);
#40=FACE_BOUND('',#76,.T.);
#41=PLANE('',#266);
#42=PLANE('',#267);
#43=PLANE('',#275);
#44=PLANE('',#276);
#45=PLANE('',#284);
#46=PLANE('',#285);
#47=FACE_OUTER_BOUND('',#59,.T.);
#48=FACE_OUTER_BOUND('',#60,.T.);
#49=FACE_OUTER_BOUND('',#61,.T.);
#50=FACE_OUTER_BOUND('',#63,.T.);
#51=FACE_OUTER_BOUND('',#65,.T.);
#52=FACE_OUTER_BOUND('',#66,.T.);
#53=FACE_OUTER_BOUND('',#67,.T.);
#54=FACE_OUTER_BOUND('',#69,.T.);
#55=FACE_OUTER_BOUND('',#71,.T.);
#56=FACE_OUTER_BOUND('',#72,.T.);
#57=FACE_OUTER_BOUND('',#73,.T.);
#58=FACE_OUTER_BOUND('',#75,.T.);
#59=EDGE_LOOP('',(#131,#132,#133,#134));
#60=EDGE_LOOP('',(#135,#136,#137,#138));
#61=EDGE_LOOP('',(#139));
#62=EDGE_LOOP('',(#140));
#63=EDGE_LOOP('',(#141));
#64=EDGE_LOOP('',(#142));
#65=EDGE_LOOP('',(#143,#144,#145,#146));
#66=EDGE_LOOP('',(#147,#148,#149,#150));
#67=EDGE_LOOP('',(#151));
#68=EDGE_LOOP('',(#152));
#69=EDGE_LOOP('',(#153));
#70=EDGE_LOOP('',(#154));
#71=EDGE_LOOP('',(#155,#156,#157,#158));
#72=EDGE_LOOP('',(#159,#160,#161,#162));
#73=EDGE_LOOP('',(#163));
#74=EDGE_LOOP('',(#164));
#75=EDGE_LOOP('',(#165));
#76=EDGE_LOOP('',(#166));
#77=LINE('',#363,#83);
#78=LINE('',#369,#84);
#79=LINE('',#378,#85);
#80=LINE('',#384,#86);
#81=LINE('',#393,#87);
#82=LINE('',#399,#88);
#83=VECTOR('',#297,2.);
#84=VECTOR('',#304,3.);
#85=VECTOR('',#317,2.);
#86=VECTOR('',#324,3.);
#87=VECTOR('',#337,2.);
#88=VECTOR('',#344,3.);
#89=CIRCLE('',#261,2.);
#90=CIRCLE('',#262,2.);
#91=CIRCLE('',#264,3.);
#92=CIRCLE('',#265,3.);
#93=CIRCLE('',#270,2.);
#94=CIRCLE('',#271,2.);
#95=CIRCLE('',#273,3.);
#96=CIRCLE('',#274,3.);
#97=CIRCLE('',#279,2.);
#98=CIRCLE('',#280,2.);
#99=CIRCLE('',#282,3.);
#100=CIRCLE('',#283,3.);
#101=VERTEX_POINT('',#360);
#102=VERTEX_POINT('',#362);
#103=VERTEX_POINT('',#366);
#104=VERTEX_POINT('',#368);
#105=VERTEX_POINT('',#375);
#106=VERTEX_POINT('',#377);
#107=VERTEX_POINT('',#381);
#108=VERTEX_POINT('',#383);
#109=VERTEX_POINT('',#390);
#110=VERTEX_POINT('',#392);
#111=VERTEX_POINT('',#396);
#112=VERTEX_POINT('',#398);
#113=EDGE_CURVE('',#101,#101,#89,.T.);
#114=EDGE_CURVE('',#101,#102,#77,.T.);
#115=EDGE_CURVE('',#102,#102,#90,.T.);
#116=EDGE_CURVE('',#103,#103,#91,.T.);
#117=EDGE_CURVE('',#103,#104,#78,.T.);
#118=EDGE_CURVE('',#104,#104,#92,.T.);
#119=EDGE_CURVE('',#105,#105,#93,.T.);
#120=EDGE_CURVE('',#105,#106,#79,.T.);
#121=EDGE_CURVE('',#106,#106,#94,.T.);
#122=EDGE_CURVE('',#107,#107,#95,.T.);
#123=EDGE_CURVE('',#107,#108,#80,.T.);
#124=EDGE_CURVE('',#108,#108,#96,.T.);
#125=EDGE_CURVE('',#109,#109,#97,.T.);
#126=EDGE_CURVE('',#109,#110,#81,.T.);
#127=EDGE_CURVE('',#110,#110,#98,.T.);
#128=EDGE_CURVE('',#111,#111,#99,.T.);
#129=EDGE_CURVE('',#111,#112,#82,.T.);
#130=EDGE_CURVE('',#112,#112,#100,.T.);
#131=ORIENTED_EDGE('',*,*,#113,.F.);
#132=ORIENTED_EDGE('',*,*,#114,.T.);
#133=ORIENTED_EDGE('',*,*,#115,.T.);
#134=ORIENTED_EDGE('',*,*,#114,.F.);
#135=ORIENTED_EDGE('',*,*,#116,.F.);
#136=ORIENTED_EDGE('',*,*,#117,.T.);
#137=ORIENTED_EDGE('',*,*,#118,.T.);
#138=ORIENTED_EDGE('',*,*,#117,.F.);
#139=ORIENTED_EDGE('',*,*,#116,.T.);
#140=ORIENTED_EDGE('',*,*,#113,.T.);
#141=ORIENTED_EDGE('',*,*,#118,.F.);
#142=ORIENTED_EDGE('',*,*,#115,.F.);
#143=ORIENTED_EDGE('',*,*,#119,.F.);
#144=ORIENTED_EDGE('',*,*,#120,.T.);
#145=ORIENTED_EDGE('',*,*,#121,.T.);
#146=ORIENTED_EDGE('',*,*,#120,.F.);
#147=ORIENTED_EDGE('',*,*,#122,.F.);
#148=ORIENTED_EDGE('',*,*,#123,.T.);
#149=ORIENTED_EDGE('',*,*,#124,.T.);
#150=ORIENTED_EDGE('',*,*,#123,.F.);
#151=ORIENTED_EDGE('',*,*,#122,.T.);
#152=ORIENTED_EDGE('',*,*,#119,.T.);
#153=ORIENTED_EDGE('',*,*,#124,.F.);
#154=ORIENTED_EDGE('',*,*,#121,.F.);
#155=ORIENTED_EDGE('',*,*,#125,.F.);
#156=ORIENTED_EDGE('',*,*,#126,.T.);
#157=ORIENTED_EDGE('',*,*,#127,.T.);
#158=ORIENTED_EDGE('',*,*,#126,.F.);
#159=ORIENTED_EDGE('',*,*,#128,.F.);
#160=ORIENTED_EDGE('',*,*,#129,.T.);
#161=ORIENTED_EDGE('',*,*,#130,.T.);
#162=ORIENTED_EDGE('',*,*,#129,.F.);
#163=ORIENTED_EDGE('',*,*,#128,.T.);
#164=ORIENTED_EDGE('',*,*,#125,.T.);
#165=ORIENTED_EDGE('',*,*,#130,.F.);
#166=ORIENTED_EDGE('',*,*,#127,.F.);
#167=CYLINDRICAL_SURFACE('',#260,2.);
#168=CYLINDRICAL_SURFACE('',#263,3.);
#169=CYLINDRICAL_SURFACE('',#269,2.);
#170=CYLINDRICAL_SURFACE('',#272,3.);
#171=CYLINDRICAL_SURFACE('',#278,2.);
#172=CYLINDRICAL_SURFACE('',#281,3.);
#173=ADVANCED_FACE('',(#47),#167,.F.);
#174=ADVANCED_FACE('',(#48),#168,.T.);
#175=ADVANCED_FACE('',(#49,#35),#41,.T.);
#176=ADVANCED_FACE('',(#50,#36),#42,.F.);
#177=ADVANCED_FACE('',(#51),#169,.F.);
#178=ADVANCED_FACE('',(#52),#170,.T.);
#179=ADVANCED_FACE('',(#53,#37),#43,.T.);
#180=ADVANCED_FACE('',(#54,#38),#44,.F.);
#181=ADVANCED_FACE('',(#55),#171,.F.);
#182=ADVANCED_FACE('',(#56),#172,.T.);
#183=ADVANCED_FACE('',(#57,#39),#45,.T.);
#184=ADVANCED_FACE('',(#58,#40),#46,.F.);
#185=CLOSED_SHELL('',(#173,#174,#175,#176));
#186=CLOSED_SHELL('',(#177,#178,#179,#180));
#187=CLOSED_SHELL('',(#181,#182,#183,#184));
#188=DERIVED_UNIT_ELEMENT(#195,1.);
#189=DERIVED_UNIT_ELEMENT(#417,-3.);
#190=DERIVED_UNIT_ELEMENT(#195,1.);
#191=DERIVED_UNIT_ELEMENT(#417,-3.);
#192=DERIVED_UNIT_ELEMENT(#195,1.);
#193=DERIVED_UNIT_ELEMENT(#417,-3.);
#194=DIMENSIONAL_EXPONENTS(0.,1.,0.,0.,0.,0.,0.);
#195=(
CONVERSION_BASED_UNIT('gram',#197)
MASS_UNIT()
NAMED_UNIT(#194)
);
#196=(
MASS_UNIT()
NAMED_UNIT(*)
SI_UNIT(.KILO.,.GRAM.)
);
#197=MASS_MEASURE_WITH_UNIT(MASS_MEASURE(0.001),#196);
#198=DERIVED_UNIT((#188,#189));
#199=DERIVED_UNIT((#190,#191));
#200=DERIVED_UNIT((#192,#193));
#201=MEASURE_REPRESENTATION_ITEM('density measure',
POSITIVE_RATIO_MEASURE(1.),#198);
#202=MEASURE_REPRESENTATION_ITEM('density measure',
POSITIVE_RATIO_MEASURE(1.),#199);
#203=MEASURE_REPRESENTATION_ITEM('density measure',
POSITIVE_RATIO_MEASURE(1.),#200);
#204=PROPERTY_DEFINITION_REPRESENTATION(#219,#210);
#205=PROPERTY_DEFINITION_REPRESENTATION(#220,#211);
#206=PROPERTY_DEFINITION_REPRESENTATION(#221,#212);
#207=PROPERTY_DEFINITION_REPRESENTATION(#222,#213);
#208=PROPERTY_DEFINITION_REPRESENTATION(#223,#214);
#209=PROPERTY_DEFINITION_REPRESENTATION(#224,#215);
#210=REPRESENTATION('material name',(#216),#412);
#211=REPRESENTATION('density',(#201),#412);
#212=REPRESENTATION('material name',(#217),#413);
#213=REPRESENTATION('density',(#202),#413);
#214=REPRESENTATION('material name',(#218),#414);
#215=REPRESENTATION('density',(#203),#414);
#216=DESCRIPTIVE_REPRESENTATION_ITEM('Generisch','Generisch');
#217=DESCRIPTIVE_REPRESENTATION_ITEM('Generisch','Generisch');
#218=DESCRIPTIVE_REPRESENTATION_ITEM('Generisch','Generisch');
#219=PROPERTY_DEFINITION('material property','material name',#437);
#220=PROPERTY_DEFINITION('material property','density of part',#437);
#221=PROPERTY_DEFINITION('material property','material name',#438);
#222=PROPERTY_DEFINITION('material property','density of part',#438);
#223=PROPERTY_DEFINITION('material property','material name',#439);
#224=PROPERTY_DEFINITION('material property','density of part',#439);
#225=PRESENTATION_STYLE_ASSIGNMENT((#226));
#226=SURFACE_STYLE_USAGE(.BOTH.,#229);
#227=SURFACE_STYLE_RENDERING_WITH_PROPERTIES($,#233,(#228));
#228=SURFACE_STYLE_TRANSPARENT(0.);
#229=SURFACE_SIDE_STYLE('',(#230,#227));
#230=SURFACE_STYLE_FILL_AREA(#231);
#231=FILL_AREA_STYLE('',(#232));
#232=FILL_AREA_STYLE_COLOUR('',#233);
#233=COLOUR_RGB('',0.749019607843137,0.749019607843137,0.749019607843137);
#234=DATE_TIME_ROLE('creation_date');
#235=DATE_TIME_ROLE('creation_date');
#236=DATE_TIME_ROLE('creation_date');
#237=DATE_TIME_ROLE('creation_date');
#238=APPLIED_DATE_AND_TIME_ASSIGNMENT(#242,#234,(#436));
#239=APPLIED_DATE_AND_TIME_ASSIGNMENT(#243,#235,(#437));
#240=APPLIED_DATE_AND_TIME_ASSIGNMENT(#244,#236,(#438));
#241=APPLIED_DATE_AND_TIME_ASSIGNMENT(#245,#237,(#439));
#242=DATE_AND_TIME(#246,#250);
#243=DATE_AND_TIME(#247,#251);
#244=DATE_AND_TIME(#248,#252);
#245=DATE_AND_TIME(#249,#253);
#246=CALENDAR_DATE(2026,19,3);
#247=CALENDAR_DATE(2026,19,3);
#248=CALENDAR_DATE(2026,19,3);
#249=CALENDAR_DATE(2026,19,3);
#250=LOCAL_TIME(0,0,0.,#254);
#251=LOCAL_TIME(0,0,0.,#255);
#252=LOCAL_TIME(0,0,0.,#256);
#253=LOCAL_TIME(0,0,0.,#257);
#254=COORDINATED_UNIVERSAL_TIME_OFFSET(0,0,.BEHIND.);
#255=COORDINATED_UNIVERSAL_TIME_OFFSET(0,0,.BEHIND.);
#256=COORDINATED_UNIVERSAL_TIME_OFFSET(0,0,.BEHIND.);
#257=COORDINATED_UNIVERSAL_TIME_OFFSET(0,0,.BEHIND.);
#258=AXIS2_PLACEMENT_3D('',#357,#289,#290);
#259=AXIS2_PLACEMENT_3D('',#358,#291,#292);
#260=AXIS2_PLACEMENT_3D('',#359,#293,#294);
#261=AXIS2_PLACEMENT_3D('',#361,#295,#296);
#262=AXIS2_PLACEMENT_3D('',#364,#298,#299);
#263=AXIS2_PLACEMENT_3D('',#365,#300,#301);
#264=AXIS2_PLACEMENT_3D('',#367,#302,#303);
#265=AXIS2_PLACEMENT_3D('',#370,#305,#306);
#266=AXIS2_PLACEMENT_3D('',#371,#307,#308);
#267=AXIS2_PLACEMENT_3D('',#372,#309,#310);
#268=AXIS2_PLACEMENT_3D('',#373,#311,#312);
#269=AXIS2_PLACEMENT_3D('',#374,#313,#314);
#270=AXIS2_PLACEMENT_3D('',#376,#315,#316);
#271=AXIS2_PLACEMENT_3D('',#379,#318,#319);
#272=AXIS2_PLACEMENT_3D('',#380,#320,#321);
#273=AXIS2_PLACEMENT_3D('',#382,#322,#323);
#274=AXIS2_PLACEMENT_3D('',#385,#325,#326);
#275=AXIS2_PLACEMENT_3D('',#386,#327,#328);
#276=AXIS2_PLACEMENT_3D('',#387,#329,#330);
#277=AXIS2_PLACEMENT_3D('',#388,#331,#332);
#278=AXIS2_PLACEMENT_3D('',#389,#333,#334);
#279=AXIS2_PLACEMENT_3D('',#391,#335,#336);
#280=AXIS2_PLACEMENT_3D('',#394,#338,#339);
#281=AXIS2_PLACEMENT_3D('',#395,#340,#341);
#282=AXIS2_PLACEMENT_3D('',#397,#342,#343);
#283=AXIS2_PLACEMENT_3D('',#400,#345,#346);
#284=AXIS2_PLACEMENT_3D('',#401,#347,#348);
#285=AXIS2_PLACEMENT_3D('',#402,#349,#350);
#286=AXIS2_PLACEMENT_3D('',#403,#351,#352);
#287=AXIS2_PLACEMENT_3D('',#404,#353,#354);
#288=AXIS2_PLACEMENT_3D('',#405,#355,#356);
#289=DIRECTION('axis',(0.,0.,1.));
#290=DIRECTION('refdir',(1.,0.,0.));
#291=DIRECTION('axis',(0.,0.,1.));
#292=DIRECTION('refdir',(1.,0.,0.));
#293=DIRECTION('center_axis',(0.,0.,1.));
#294=DIRECTION('ref_axis',(-1.,0.,0.));
#295=DIRECTION('center_axis',(0.,0.,-1.));
#296=DIRECTION('ref_axis',(-1.,0.,0.));
#297=DIRECTION('',(0.,0.,-1.));
#298=DIRECTION('center_axis',(0.,0.,-1.));
#299=DIRECTION('ref_axis',(-1.,0.,0.));
#300=DIRECTION('center_axis',(0.,0.,1.));
#301=DIRECTION('ref_axis',(1.,0.,0.));
#302=DIRECTION('center_axis',(0.,0.,1.));
#303=DIRECTION('ref_axis',(1.,0.,0.));
#304=DIRECTION('',(0.,0.,-1.));
#305=DIRECTION('center_axis',(0.,0.,1.));
#306=DIRECTION('ref_axis',(1.,0.,0.));
#307=DIRECTION('center_axis',(0.,0.,1.));
#308=DIRECTION('ref_axis',(1.,0.,0.));
#309=DIRECTION('center_axis',(0.,0.,1.));
#310=DIRECTION('ref_axis',(1.,0.,0.));
#311=DIRECTION('axis',(0.,0.,1.));
#312=DIRECTION('refdir',(1.,0.,0.));
#313=DIRECTION('center_axis',(0.,0.,1.));
#314=DIRECTION('ref_axis',(-1.,0.,0.));
#315=DIRECTION('center_axis',(0.,0.,-1.));
#316=DIRECTION('ref_axis',(-1.,0.,0.));
#317=DIRECTION('',(0.,0.,-1.));
#318=DIRECTION('center_axis',(0.,0.,-1.));
#319=DIRECTION('ref_axis',(-1.,0.,0.));
#320=DIRECTION('center_axis',(0.,0.,1.));
#321=DIRECTION('ref_axis',(1.,0.,0.));
#322=DIRECTION('center_axis',(0.,0.,1.));
#323=DIRECTION('ref_axis',(1.,0.,0.));
#324=DIRECTION('',(0.,0.,-1.));
#325=DIRECTION('center_axis',(0.,0.,1.));
#326=DIRECTION('ref_axis',(1.,0.,0.));
#327=DIRECTION('center_axis',(0.,0.,1.));
#328=DIRECTION('ref_axis',(1.,0.,0.));
#329=DIRECTION('center_axis',(0.,0.,1.));
#330=DIRECTION('ref_axis',(1.,0.,0.));
#331=DIRECTION('axis',(0.,0.,1.));
#332=DIRECTION('refdir',(1.,0.,0.));
#333=DIRECTION('center_axis',(0.,0.,1.));
#334=DIRECTION('ref_axis',(-1.,0.,0.));
#335=DIRECTION('center_axis',(0.,0.,-1.));
#336=DIRECTION('ref_axis',(-1.,0.,0.));
#337=DIRECTION('',(0.,0.,-1.));
#338=DIRECTION('center_axis',(0.,0.,-1.));
#339=DIRECTION('ref_axis',(-1.,0.,0.));
#340=DIRECTION('center_axis',(0.,0.,1.));
#341=DIRECTION('ref_axis',(1.,0.,0.));
#342=DIRECTION('center_axis',(0.,0.,1.));
#343=DIRECTION('ref_axis',(1.,0.,0.));
#344=DIRECTION('',(0.,0.,-1.));
#345=DIRECTION('center_axis',(0.,0.,1.));
#346=DIRECTION('ref_axis',(1.,0.,0.));
#347=DIRECTION('center_axis',(0.,0.,1.));
#348=DIRECTION('ref_axis',(1.,0.,0.));
#349=DIRECTION('center_axis',(0.,0.,1.));
#350=DIRECTION('ref_axis',(1.,0.,0.));
#351=DIRECTION('',(0.,0.,1.));
#352=DIRECTION('',(1.,0.,0.));
#353=DIRECTION('',(0.,0.,1.));
#354=DIRECTION('',(1.,0.,0.));
#355=DIRECTION('',(0.,0.,1.));
#356=DIRECTION('',(1.,0.,0.));
#357=CARTESIAN_POINT('',(0.,0.,0.));
#358=CARTESIAN_POINT('',(0.,0.,0.));
#359=CARTESIAN_POINT('Origin',(0.,0.,0.));
#360=CARTESIAN_POINT('',(2.,2.44929359829471E-16,0.2));
#361=CARTESIAN_POINT('Origin',(0.,0.,0.2));
#362=CARTESIAN_POINT('',(2.,2.44929359829471E-16,0.));
#363=CARTESIAN_POINT('',(2.,2.44929359829471E-16,0.));
#364=CARTESIAN_POINT('Origin',(0.,0.,0.));
#365=CARTESIAN_POINT('Origin',(0.,0.,0.));
#366=CARTESIAN_POINT('',(-3.,-3.67394039744206E-16,0.2));
#367=CARTESIAN_POINT('Origin',(0.,0.,0.2));
#368=CARTESIAN_POINT('',(-3.,-3.67394039744206E-16,0.));
#369=CARTESIAN_POINT('',(-3.,-3.67394039744206E-16,0.));
#370=CARTESIAN_POINT('Origin',(0.,0.,0.));
#371=CARTESIAN_POINT('Origin',(0.,0.,0.2));
#372=CARTESIAN_POINT('Origin',(0.,0.,0.));
#373=CARTESIAN_POINT('',(0.,0.,0.));
#374=CARTESIAN_POINT('Origin',(0.,0.,0.));
#375=CARTESIAN_POINT('',(2.,2.44929359829471E-16,0.3));
#376=CARTESIAN_POINT('Origin',(0.,0.,0.3));
#377=CARTESIAN_POINT('',(2.,2.44929359829471E-16,0.));
#378=CARTESIAN_POINT('',(2.,2.44929359829471E-16,0.));
#379=CARTESIAN_POINT('Origin',(0.,0.,0.));
#380=CARTESIAN_POINT('Origin',(0.,0.,0.));
#381=CARTESIAN_POINT('',(-3.,-3.67394039744206E-16,0.3));
#382=CARTESIAN_POINT('Origin',(0.,0.,0.3));
#383=CARTESIAN_POINT('',(-3.,-3.67394039744206E-16,0.));
#384=CARTESIAN_POINT('',(-3.,-3.67394039744206E-16,0.));
#385=CARTESIAN_POINT('Origin',(0.,0.,0.));
#386=CARTESIAN_POINT('Origin',(0.,0.,0.3));
#387=CARTESIAN_POINT('Origin',(0.,0.,0.));
#388=CARTESIAN_POINT('',(0.,0.,0.));
#389=CARTESIAN_POINT('Origin',(0.,0.,0.));
#390=CARTESIAN_POINT('',(2.,2.44929359829471E-16,0.4));
#391=CARTESIAN_POINT('Origin',(0.,0.,0.4));
#392=CARTESIAN_POINT('',(2.,2.44929359829471E-16,0.));
#393=CARTESIAN_POINT('',(2.,2.44929359829471E-16,0.));
#394=CARTESIAN_POINT('Origin',(0.,0.,0.));
#395=CARTESIAN_POINT('Origin',(0.,0.,0.));
#396=CARTESIAN_POINT('',(-3.,-3.67394039744206E-16,0.4));
#397=CARTESIAN_POINT('Origin',(0.,0.,0.4));
#398=CARTESIAN_POINT('',(-3.,-3.67394039744206E-16,0.));
#399=CARTESIAN_POINT('',(-3.,-3.67394039744206E-16,0.));
#400=CARTESIAN_POINT('Origin',(0.,0.,0.));
#401=CARTESIAN_POINT('Origin',(0.,0.,0.4));
#402=CARTESIAN_POINT('Origin',(0.,0.,0.));
#403=CARTESIAN_POINT('',(-3.59848479486325,22.7588385842352,0.));
#404=CARTESIAN_POINT('',(-17.8183260688463,28.8496999086597,3.69693021742222));
#405=CARTESIAN_POINT('',(-23.3474966830597,35.6562140664601,6.14856618729398));
#406=UNCERTAINTY_MEASURE_WITH_UNIT(LENGTH_MEASURE(0.01),#416,
'DISTANCE_ACCURACY_VALUE',
'Maximum model space distance between geometric entities at asserted c
onnectivities');
#407=UNCERTAINTY_MEASURE_WITH_UNIT(LENGTH_MEASURE(0.01),#416,
'DISTANCE_ACCURACY_VALUE',
'Maximum model space distance between geometric entities at asserted c
onnectivities');
#408=UNCERTAINTY_MEASURE_WITH_UNIT(LENGTH_MEASURE(0.01),#416,
'DISTANCE_ACCURACY_VALUE',
'Maximum model space distance between geometric entities at asserted c
onnectivities');
#409=UNCERTAINTY_MEASURE_WITH_UNIT(LENGTH_MEASURE(0.01),#416,
'DISTANCE_ACCURACY_VALUE',
'Maximum model space distance between geometric entities at asserted c
onnectivities');
#410=UNCERTAINTY_MEASURE_WITH_UNIT(LENGTH_MEASURE(0.01),#416,
'DISTANCE_ACCURACY_VALUE',
'Maximum model space distance between geometric entities at asserted c
onnectivities');
#411=(
GEOMETRIC_REPRESENTATION_CONTEXT(3)
GLOBAL_UNCERTAINTY_ASSIGNED_CONTEXT((#406))
GLOBAL_UNIT_ASSIGNED_CONTEXT((#416,#418,#419))
REPRESENTATION_CONTEXT('','3D')
);
#412=(
GEOMETRIC_REPRESENTATION_CONTEXT(3)
GLOBAL_UNCERTAINTY_ASSIGNED_CONTEXT((#407))
GLOBAL_UNIT_ASSIGNED_CONTEXT((#416,#418,#419))
REPRESENTATION_CONTEXT('','3D')
);
#413=(
GEOMETRIC_REPRESENTATION_CONTEXT(3)
GLOBAL_UNCERTAINTY_ASSIGNED_CONTEXT((#408))
GLOBAL_UNIT_ASSIGNED_CONTEXT((#416,#418,#419))
REPRESENTATION_CONTEXT('','3D')
);
#414=(
GEOMETRIC_REPRESENTATION_CONTEXT(3)
GLOBAL_UNCERTAINTY_ASSIGNED_CONTEXT((#409))
GLOBAL_UNIT_ASSIGNED_CONTEXT((#416,#418,#419))
REPRESENTATION_CONTEXT('','3D')
);
#415=(
GEOMETRIC_REPRESENTATION_CONTEXT(3)
GLOBAL_UNCERTAINTY_ASSIGNED_CONTEXT((#410))
GLOBAL_UNIT_ASSIGNED_CONTEXT((#416,#418,#419))
REPRESENTATION_CONTEXT('','3D')
);
#416=(
LENGTH_UNIT()
NAMED_UNIT(*)
SI_UNIT(.MILLI.,.METRE.)
);
#417=(
LENGTH_UNIT()
NAMED_UNIT(*)
SI_UNIT(.CENTI.,.METRE.)
);
#418=(
NAMED_UNIT(*)
PLANE_ANGLE_UNIT()
SI_UNIT($,.RADIAN.)
);
#419=(
NAMED_UNIT(*)
SI_UNIT($,.STERADIAN.)
SOLID_ANGLE_UNIT()
);
#420=SHAPE_DEFINITION_REPRESENTATION(#424,#431);
#421=SHAPE_DEFINITION_REPRESENTATION(#425,#432);
#422=SHAPE_DEFINITION_REPRESENTATION(#426,#433);
#423=SHAPE_DEFINITION_REPRESENTATION(#427,#434);
#424=PRODUCT_DEFINITION_SHAPE('',$,#436);
#425=PRODUCT_DEFINITION_SHAPE('',$,#437);
#426=PRODUCT_DEFINITION_SHAPE('',$,#438);
#427=PRODUCT_DEFINITION_SHAPE('',$,#439);
#428=PRODUCT_DEFINITION_SHAPE($,$,#20);
#429=PRODUCT_DEFINITION_SHAPE($,$,#21);
#430=PRODUCT_DEFINITION_SHAPE($,$,#22);
#431=SHAPE_REPRESENTATION('',(#258,#286,#287,#288),#411);
#432=SHAPE_REPRESENTATION('',(#259),#412);
#433=SHAPE_REPRESENTATION('',(#268),#413);
#434=SHAPE_REPRESENTATION('',(#277),#414);
#435=PRODUCT_DEFINITION_CONTEXT('part definition',#449,'design');
#436=PRODUCT_DEFINITION('separator','separator',#440,#435);
#437=PRODUCT_DEFINITION('0_2_sep','0_2_sep',#441,#435);
#438=PRODUCT_DEFINITION('0_3_sep','0_3_sep',#442,#435);
#439=PRODUCT_DEFINITION('0_4_sep','0_4_sep',#443,#435);
#440=PRODUCT_DEFINITION_FORMATION('',$,#451);
#441=PRODUCT_DEFINITION_FORMATION('',$,#452);
#442=PRODUCT_DEFINITION_FORMATION('',$,#453);
#443=PRODUCT_DEFINITION_FORMATION('',$,#454);
#444=PRODUCT_RELATED_PRODUCT_CATEGORY('separator','separator',(#451));
#445=PRODUCT_RELATED_PRODUCT_CATEGORY('0_2_sep','0_2_sep',(#452));
#446=PRODUCT_RELATED_PRODUCT_CATEGORY('0_3_sep','0_3_sep',(#453));
#447=PRODUCT_RELATED_PRODUCT_CATEGORY('0_4_sep','0_4_sep',(#454));
#448=APPLICATION_PROTOCOL_DEFINITION('international standard',
'automotive_design',2009,#449);
#449=APPLICATION_CONTEXT(
'Core Data for Automotive Mechanical Design Process');
#450=PRODUCT_CONTEXT('part definition',#449,'mechanical');
#451=PRODUCT('separator','separator',$,(#450));
#452=PRODUCT('0_2_sep','0_2_sep',$,(#450));
#453=PRODUCT('0_3_sep','0_3_sep',$,(#450));
#454=PRODUCT('0_4_sep','0_4_sep',$,(#450));
ENDSEC;
END-ISO-10303-21;
