ISO-10303-21;
HEADER;
/* Generated by software containing ST-Developer
 * from STEP Tools, Inc. (www.steptools.com) 
 */

FILE_DESCRIPTION(
/* description */ (''),
/* implementation_level */ '2;1');

FILE_NAME(
/* name */ 'right_black.stp',
/* time_stamp */ '2026-01-05T11:47:15+01:00',
/* author */ ('Wendelin'),
/* organization */ (''),
/* preprocessor_version */ 'ST-DEVELOPER v20',
/* originating_system */ 'Autodesk Inventor 2024',
/* authorisation */ '');

FILE_SCHEMA (('AUTOMOTIVE_DESIGN { 1 0 10303 214 3 1 1 }'));
ENDSEC;

DATA;
#10=MECHANICAL_DESIGN_GEOMETRIC_PRESENTATION_REPRESENTATION('',(#13),#410);
#11=SHAPE_REPRESENTATION_RELATIONSHIP('SRR','None',#417,#12);
#12=ADVANCED_BREP_SHAPE_REPRESENTATION('',(#14),#409);
#13=STYLED_ITEM('',(#426),#14);
#14=MANIFOLD_SOLID_BREP('Volumenk\X\F6rper2',#237);
#15=CYLINDRICAL_SURFACE('',#273,5.);
#16=CYLINDRICAL_SURFACE('',#274,2.);
#17=CYLINDRICAL_SURFACE('',#276,1.6);
#18=FACE_BOUND('',#43,.T.);
#19=FACE_BOUND('',#46,.T.);
#20=FACE_BOUND('',#48,.T.);
#21=CIRCLE('',#263,5.);
#22=CIRCLE('',#264,2.);
#23=CIRCLE('',#267,5.);
#24=CIRCLE('',#268,2.);
#25=CIRCLE('',#270,1.6);
#26=CIRCLE('',#277,1.6);
#27=FACE_OUTER_BOUND('',#40,.T.);
#28=FACE_OUTER_BOUND('',#41,.T.);
#29=FACE_OUTER_BOUND('',#42,.T.);
#30=FACE_OUTER_BOUND('',#44,.T.);
#31=FACE_OUTER_BOUND('',#45,.T.);
#32=FACE_OUTER_BOUND('',#47,.T.);
#33=FACE_OUTER_BOUND('',#49,.T.);
#34=FACE_OUTER_BOUND('',#50,.T.);
#35=FACE_OUTER_BOUND('',#51,.T.);
#36=FACE_OUTER_BOUND('',#52,.T.);
#37=FACE_OUTER_BOUND('',#53,.T.);
#38=FACE_OUTER_BOUND('',#54,.T.);
#39=FACE_OUTER_BOUND('',#55,.T.);
#40=EDGE_LOOP('',(#154,#155,#156,#157));
#41=EDGE_LOOP('',(#158,#159,#160,#161,#162,#163));
#42=EDGE_LOOP('',(#164,#165,#166,#167,#168,#169));
#43=EDGE_LOOP('',(#170));
#44=EDGE_LOOP('',(#171,#172,#173,#174));
#45=EDGE_LOOP('',(#175,#176,#177,#178,#179,#180));
#46=EDGE_LOOP('',(#181));
#47=EDGE_LOOP('',(#182,#183,#184,#185,#186,#187));
#48=EDGE_LOOP('',(#188));
#49=EDGE_LOOP('',(#189,#190,#191,#192));
#50=EDGE_LOOP('',(#193,#194,#195,#196));
#51=EDGE_LOOP('',(#197,#198,#199,#200));
#52=EDGE_LOOP('',(#201,#202,#203,#204));
#53=EDGE_LOOP('',(#205,#206,#207,#208));
#54=EDGE_LOOP('',(#209,#210,#211,#212));
#55=EDGE_LOOP('',(#213));
#56=LINE('',#347,#80);
#57=LINE('',#349,#81);
#58=LINE('',#351,#82);
#59=LINE('',#352,#83);
#60=LINE('',#355,#84);
#61=LINE('',#357,#85);
#62=LINE('',#359,#86);
#63=LINE('',#361,#87);
#64=LINE('',#362,#88);
#65=LINE('',#367,#89);
#66=LINE('',#369,#90);
#67=LINE('',#370,#91);
#68=LINE('',#376,#92);
#69=LINE('',#377,#93);
#70=LINE('',#378,#94);
#71=LINE('',#381,#95);
#72=LINE('',#383,#96);
#73=LINE('',#389,#97);
#74=LINE('',#390,#98);
#75=LINE('',#391,#99);
#76=LINE('',#395,#100);
#77=LINE('',#398,#101);
#78=LINE('',#400,#102);
#79=LINE('',#405,#103);
#80=VECTOR('',#283,10.);
#81=VECTOR('',#284,10.);
#82=VECTOR('',#285,10.);
#83=VECTOR('',#286,10.);
#84=VECTOR('',#289,10.);
#85=VECTOR('',#290,10.);
#86=VECTOR('',#291,10.);
#87=VECTOR('',#292,10.);
#88=VECTOR('',#293,10.);
#89=VECTOR('',#298,10.);
#90=VECTOR('',#299,10.);
#91=VECTOR('',#300,10.);
#92=VECTOR('',#305,10.);
#93=VECTOR('',#306,10.);
#94=VECTOR('',#307,10.);
#95=VECTOR('',#310,10.);
#96=VECTOR('',#311,10.);
#97=VECTOR('',#318,10.);
#98=VECTOR('',#319,10.);
#99=VECTOR('',#320,10.);
#100=VECTOR('',#325,10.);
#101=VECTOR('',#330,10.);
#102=VECTOR('',#333,2.);
#103=VECTOR('',#340,1.6);
#104=VERTEX_POINT('',#345);
#105=VERTEX_POINT('',#346);
#106=VERTEX_POINT('',#348);
#107=VERTEX_POINT('',#350);
#108=VERTEX_POINT('',#354);
#109=VERTEX_POINT('',#356);
#110=VERTEX_POINT('',#358);
#111=VERTEX_POINT('',#360);
#112=VERTEX_POINT('',#364);
#113=VERTEX_POINT('',#366);
#114=VERTEX_POINT('',#368);
#115=VERTEX_POINT('',#371);
#116=VERTEX_POINT('',#374);
#117=VERTEX_POINT('',#375);
#118=VERTEX_POINT('',#380);
#119=VERTEX_POINT('',#382);
#120=VERTEX_POINT('',#385);
#121=VERTEX_POINT('',#388);
#122=VERTEX_POINT('',#392);
#123=VERTEX_POINT('',#403);
#124=EDGE_CURVE('',#104,#105,#56,.T.);
#125=EDGE_CURVE('',#106,#104,#57,.T.);
#126=EDGE_CURVE('',#107,#106,#58,.T.);
#127=EDGE_CURVE('',#105,#107,#59,.T.);
#128=EDGE_CURVE('',#108,#106,#60,.T.);
#129=EDGE_CURVE('',#108,#109,#61,.T.);
#130=EDGE_CURVE('',#110,#109,#62,.T.);
#131=EDGE_CURVE('',#110,#111,#63,.T.);
#132=EDGE_CURVE('',#111,#107,#64,.T.);
#133=EDGE_CURVE('',#112,#104,#21,.T.);
#134=EDGE_CURVE('',#112,#113,#65,.T.);
#135=EDGE_CURVE('',#114,#113,#66,.T.);
#136=EDGE_CURVE('',#114,#108,#67,.T.);
#137=EDGE_CURVE('',#115,#115,#22,.T.);
#138=EDGE_CURVE('',#116,#117,#68,.T.);
#139=EDGE_CURVE('',#111,#116,#69,.T.);
#140=EDGE_CURVE('',#117,#110,#70,.T.);
#141=EDGE_CURVE('',#118,#116,#71,.T.);
#142=EDGE_CURVE('',#119,#118,#72,.T.);
#143=EDGE_CURVE('',#105,#119,#23,.T.);
#144=EDGE_CURVE('',#120,#120,#24,.T.);
#145=EDGE_CURVE('',#117,#121,#73,.T.);
#146=EDGE_CURVE('',#121,#114,#74,.T.);
#147=EDGE_CURVE('',#113,#118,#75,.T.);
#148=EDGE_CURVE('',#122,#122,#25,.T.);
#149=EDGE_CURVE('',#109,#121,#76,.T.);
#150=EDGE_CURVE('',#119,#112,#77,.T.);
#151=EDGE_CURVE('',#120,#115,#78,.T.);
#152=EDGE_CURVE('',#123,#123,#26,.T.);
#153=EDGE_CURVE('',#123,#122,#79,.T.);
#154=ORIENTED_EDGE('',*,*,#124,.F.);
#155=ORIENTED_EDGE('',*,*,#125,.F.);
#156=ORIENTED_EDGE('',*,*,#126,.F.);
#157=ORIENTED_EDGE('',*,*,#127,.F.);
#158=ORIENTED_EDGE('',*,*,#126,.T.);
#159=ORIENTED_EDGE('',*,*,#128,.F.);
#160=ORIENTED_EDGE('',*,*,#129,.T.);
#161=ORIENTED_EDGE('',*,*,#130,.F.);
#162=ORIENTED_EDGE('',*,*,#131,.T.);
#163=ORIENTED_EDGE('',*,*,#132,.T.);
#164=ORIENTED_EDGE('',*,*,#125,.T.);
#165=ORIENTED_EDGE('',*,*,#133,.F.);
#166=ORIENTED_EDGE('',*,*,#134,.T.);
#167=ORIENTED_EDGE('',*,*,#135,.F.);
#168=ORIENTED_EDGE('',*,*,#136,.T.);
#169=ORIENTED_EDGE('',*,*,#128,.T.);
#170=ORIENTED_EDGE('',*,*,#137,.T.);
#171=ORIENTED_EDGE('',*,*,#138,.F.);
#172=ORIENTED_EDGE('',*,*,#139,.F.);
#173=ORIENTED_EDGE('',*,*,#131,.F.);
#174=ORIENTED_EDGE('',*,*,#140,.F.);
#175=ORIENTED_EDGE('',*,*,#127,.T.);
#176=ORIENTED_EDGE('',*,*,#132,.F.);
#177=ORIENTED_EDGE('',*,*,#139,.T.);
#178=ORIENTED_EDGE('',*,*,#141,.F.);
#179=ORIENTED_EDGE('',*,*,#142,.F.);
#180=ORIENTED_EDGE('',*,*,#143,.F.);
#181=ORIENTED_EDGE('',*,*,#144,.F.);
#182=ORIENTED_EDGE('',*,*,#141,.T.);
#183=ORIENTED_EDGE('',*,*,#138,.T.);
#184=ORIENTED_EDGE('',*,*,#145,.T.);
#185=ORIENTED_EDGE('',*,*,#146,.T.);
#186=ORIENTED_EDGE('',*,*,#135,.T.);
#187=ORIENTED_EDGE('',*,*,#147,.T.);
#188=ORIENTED_EDGE('',*,*,#148,.T.);
#189=ORIENTED_EDGE('',*,*,#140,.T.);
#190=ORIENTED_EDGE('',*,*,#130,.T.);
#191=ORIENTED_EDGE('',*,*,#149,.T.);
#192=ORIENTED_EDGE('',*,*,#145,.F.);
#193=ORIENTED_EDGE('',*,*,#129,.F.);
#194=ORIENTED_EDGE('',*,*,#136,.F.);
#195=ORIENTED_EDGE('',*,*,#146,.F.);
#196=ORIENTED_EDGE('',*,*,#149,.F.);
#197=ORIENTED_EDGE('',*,*,#124,.T.);
#198=ORIENTED_EDGE('',*,*,#143,.T.);
#199=ORIENTED_EDGE('',*,*,#150,.T.);
#200=ORIENTED_EDGE('',*,*,#133,.T.);
#201=ORIENTED_EDGE('',*,*,#144,.T.);
#202=ORIENTED_EDGE('',*,*,#151,.T.);
#203=ORIENTED_EDGE('',*,*,#137,.F.);
#204=ORIENTED_EDGE('',*,*,#151,.F.);
#205=ORIENTED_EDGE('',*,*,#142,.T.);
#206=ORIENTED_EDGE('',*,*,#147,.F.);
#207=ORIENTED_EDGE('',*,*,#134,.F.);
#208=ORIENTED_EDGE('',*,*,#150,.F.);
#209=ORIENTED_EDGE('',*,*,#152,.F.);
#210=ORIENTED_EDGE('',*,*,#153,.T.);
#211=ORIENTED_EDGE('',*,*,#148,.F.);
#212=ORIENTED_EDGE('',*,*,#153,.F.);
#213=ORIENTED_EDGE('',*,*,#152,.T.);
#214=PLANE('',#260);
#215=PLANE('',#261);
#216=PLANE('',#262);
#217=PLANE('',#265);
#218=PLANE('',#266);
#219=PLANE('',#269);
#220=PLANE('',#271);
#221=PLANE('',#272);
#222=PLANE('',#275);
#223=PLANE('',#278);
#224=ADVANCED_FACE('',(#27),#214,.F.);
#225=ADVANCED_FACE('',(#28),#215,.F.);
#226=ADVANCED_FACE('',(#29,#18),#216,.T.);
#227=ADVANCED_FACE('',(#30),#217,.F.);
#228=ADVANCED_FACE('',(#31,#19),#218,.F.);
#229=ADVANCED_FACE('',(#32,#20),#219,.T.);
#230=ADVANCED_FACE('',(#33),#220,.T.);
#231=ADVANCED_FACE('',(#34),#221,.F.);
#232=ADVANCED_FACE('',(#35),#15,.T.);
#233=ADVANCED_FACE('',(#36),#16,.F.);
#234=ADVANCED_FACE('',(#37),#222,.T.);
#235=ADVANCED_FACE('',(#38),#17,.T.);
#236=ADVANCED_FACE('',(#39),#223,.T.);
#237=CLOSED_SHELL('',(#224,#225,#226,#227,#228,#229,#230,#231,#232,#233,
#234,#235,#236));
#238=DERIVED_UNIT_ELEMENT(#241,1.);
#239=DERIVED_UNIT_ELEMENT(#412,-3.);
#240=DIMENSIONAL_EXPONENTS(0.,1.,0.,0.,0.,0.,0.);
#241=(
CONVERSION_BASED_UNIT('gram',#243)
MASS_UNIT()
NAMED_UNIT(#240)
);
#242=(
MASS_UNIT()
NAMED_UNIT(*)
SI_UNIT(.KILO.,.GRAM.)
);
#243=MASS_MEASURE_WITH_UNIT(MASS_MEASURE(0.001),#242);
#244=DERIVED_UNIT((#238,#239));
#245=MEASURE_REPRESENTATION_ITEM('density measure',
POSITIVE_RATIO_MEASURE(1.),#244);
#246=PROPERTY_DEFINITION_REPRESENTATION(#251,#248);
#247=PROPERTY_DEFINITION_REPRESENTATION(#252,#249);
#248=REPRESENTATION('material name',(#250),#409);
#249=REPRESENTATION('density',(#245),#409);
#250=DESCRIPTIVE_REPRESENTATION_ITEM('Generisch','Generisch');
#251=PROPERTY_DEFINITION('material property','material name',#419);
#252=PROPERTY_DEFINITION('material property','density of part',#419);
#253=DATE_TIME_ROLE('creation_date');
#254=APPLIED_DATE_AND_TIME_ASSIGNMENT(#255,#253,(#419));
#255=DATE_AND_TIME(#256,#257);
#256=CALENDAR_DATE(2026,4,1);
#257=LOCAL_TIME(0,0,0.,#258);
#258=COORDINATED_UNIVERSAL_TIME_OFFSET(0,0,.BEHIND.);
#259=AXIS2_PLACEMENT_3D('',#343,#279,#280);
#260=AXIS2_PLACEMENT_3D('',#344,#281,#282);
#261=AXIS2_PLACEMENT_3D('',#353,#287,#288);
#262=AXIS2_PLACEMENT_3D('',#363,#294,#295);
#263=AXIS2_PLACEMENT_3D('',#365,#296,#297);
#264=AXIS2_PLACEMENT_3D('',#372,#301,#302);
#265=AXIS2_PLACEMENT_3D('',#373,#303,#304);
#266=AXIS2_PLACEMENT_3D('',#379,#308,#309);
#267=AXIS2_PLACEMENT_3D('',#384,#312,#313);
#268=AXIS2_PLACEMENT_3D('',#386,#314,#315);
#269=AXIS2_PLACEMENT_3D('',#387,#316,#317);
#270=AXIS2_PLACEMENT_3D('',#393,#321,#322);
#271=AXIS2_PLACEMENT_3D('',#394,#323,#324);
#272=AXIS2_PLACEMENT_3D('',#396,#326,#327);
#273=AXIS2_PLACEMENT_3D('',#397,#328,#329);
#274=AXIS2_PLACEMENT_3D('',#399,#331,#332);
#275=AXIS2_PLACEMENT_3D('',#401,#334,#335);
#276=AXIS2_PLACEMENT_3D('',#402,#336,#337);
#277=AXIS2_PLACEMENT_3D('',#404,#338,#339);
#278=AXIS2_PLACEMENT_3D('',#406,#341,#342);
#279=DIRECTION('axis',(0.,0.,1.));
#280=DIRECTION('refdir',(1.,0.,0.));
#281=DIRECTION('center_axis',(0.,1.,0.));
#282=DIRECTION('ref_axis',(0.,0.,1.));
#283=DIRECTION('',(1.,0.,0.));
#284=DIRECTION('',(0.,0.,1.));
#285=DIRECTION('',(-1.,0.,0.));
#286=DIRECTION('',(0.,0.,-1.));
#287=DIRECTION('center_axis',(0.,0.,1.));
#288=DIRECTION('ref_axis',(1.,0.,0.));
#289=DIRECTION('',(0.,-1.,0.));
#290=DIRECTION('',(1.,0.,0.));
#291=DIRECTION('',(0.,1.,0.));
#292=DIRECTION('',(-1.,0.,0.));
#293=DIRECTION('',(0.,-1.,0.));
#294=DIRECTION('center_axis',(-1.,0.,0.));
#295=DIRECTION('ref_axis',(0.,-1.,0.));
#296=DIRECTION('center_axis',(1.,0.,0.));
#297=DIRECTION('ref_axis',(0.,-0.707106781186547,0.707106781186547));
#298=DIRECTION('',(0.,0.,-1.));
#299=DIRECTION('',(0.,-1.,0.));
#300=DIRECTION('',(0.,0.,-1.));
#301=DIRECTION('center_axis',(1.,0.,0.));
#302=DIRECTION('ref_axis',(0.,0.,-1.));
#303=DIRECTION('center_axis',(0.,1.,0.));
#304=DIRECTION('ref_axis',(-1.,0.,0.));
#305=DIRECTION('',(1.,0.,0.));
#306=DIRECTION('',(0.,0.,1.));
#307=DIRECTION('',(0.,0.,-1.));
#308=DIRECTION('center_axis',(-1.,0.,0.));
#309=DIRECTION('ref_axis',(0.,-1.,0.));
#310=DIRECTION('',(0.,1.,0.));
#311=DIRECTION('',(0.,0.,-1.));
#312=DIRECTION('center_axis',(-1.,0.,0.));
#313=DIRECTION('ref_axis',(0.,0.707106781186547,0.707106781186547));
#314=DIRECTION('center_axis',(1.,0.,0.));
#315=DIRECTION('ref_axis',(0.,0.,-1.));
#316=DIRECTION('center_axis',(0.,0.,1.));
#317=DIRECTION('ref_axis',(1.,0.,0.));
#318=DIRECTION('',(0.,1.,0.));
#319=DIRECTION('',(-1.,0.,0.));
#320=DIRECTION('',(1.,0.,0.));
#321=DIRECTION('center_axis',(0.,0.,-1.));
#322=DIRECTION('ref_axis',(1.,0.,0.));
#323=DIRECTION('center_axis',(1.,0.,0.));
#324=DIRECTION('ref_axis',(0.,1.,0.));
#325=DIRECTION('',(0.,0.,1.));
#326=DIRECTION('center_axis',(0.,-1.,0.));
#327=DIRECTION('ref_axis',(0.,0.,-1.));
#328=DIRECTION('center_axis',(-1.,0.,0.));
#329=DIRECTION('ref_axis',(0.,0.707106781186547,0.707106781186547));
#330=DIRECTION('',(-1.,0.,0.));
#331=DIRECTION('center_axis',(-1.,0.,0.));
#332=DIRECTION('ref_axis',(0.,0.,-1.));
#333=DIRECTION('',(-1.,0.,0.));
#334=DIRECTION('center_axis',(0.,1.,0.));
#335=DIRECTION('ref_axis',(0.,0.,-1.));
#336=DIRECTION('center_axis',(0.,0.,1.));
#337=DIRECTION('ref_axis',(1.,0.,0.));
#338=DIRECTION('center_axis',(0.,0.,1.));
#339=DIRECTION('ref_axis',(1.,0.,0.));
#340=DIRECTION('',(0.,0.,-1.));
#341=DIRECTION('center_axis',(0.,0.,1.));
#342=DIRECTION('ref_axis',(1.,0.,0.));
#343=CARTESIAN_POINT('',(0.,0.,0.));
#344=CARTESIAN_POINT('Origin',(9.875,0.2,6.));
#345=CARTESIAN_POINT('',(0.,0.2,8.4));
#346=CARTESIAN_POINT('',(19.75,0.2,8.4));
#347=CARTESIAN_POINT('',(25.,0.2,8.4));
#348=CARTESIAN_POINT('',(0.,0.2,0.));
#349=CARTESIAN_POINT('',(0.,0.199999999999996,3.));
#350=CARTESIAN_POINT('',(19.75,0.2,0.));
#351=CARTESIAN_POINT('',(11.1875,0.2,0.));
#352=CARTESIAN_POINT('',(19.75,0.199999999999996,3.));
#353=CARTESIAN_POINT('Origin',(12.5,35.,0.));
#354=CARTESIAN_POINT('',(0.,69.5,0.));
#355=CARTESIAN_POINT('',(0.,70.,0.));
#356=CARTESIAN_POINT('',(25.,69.5,0.));
#357=CARTESIAN_POINT('',(12.5,69.5,0.));
#358=CARTESIAN_POINT('',(25.,50.5,0.));
#359=CARTESIAN_POINT('',(25.,0.,0.));
#360=CARTESIAN_POINT('',(19.75,50.5,0.));
#361=CARTESIAN_POINT('',(18.75,50.5,0.));
#362=CARTESIAN_POINT('',(19.75,42.75,0.));
#363=CARTESIAN_POINT('Origin',(0.,70.,0.));
#364=CARTESIAN_POINT('',(0.,10.,7.));
#365=CARTESIAN_POINT('Origin',(0.,5.,7.));
#366=CARTESIAN_POINT('',(0.,10.,4.));
#367=CARTESIAN_POINT('',(0.,10.,4.));
#368=CARTESIAN_POINT('',(0.,69.5,4.));
#369=CARTESIAN_POINT('',(0.,70.,4.));
#370=CARTESIAN_POINT('',(0.,69.5,1.));
#371=CARTESIAN_POINT('',(0.,5.,10.));
#372=CARTESIAN_POINT('Origin',(0.,5.,8.));
#373=CARTESIAN_POINT('Origin',(25.,50.5,0.));
#374=CARTESIAN_POINT('',(19.75,50.5,4.));
#375=CARTESIAN_POINT('',(25.,50.5,4.));
#376=CARTESIAN_POINT('',(18.75,50.5,4.));
#377=CARTESIAN_POINT('',(19.75,50.5,0.));
#378=CARTESIAN_POINT('',(25.,50.5,0.));
#379=CARTESIAN_POINT('Origin',(19.75,50.5,0.));
#380=CARTESIAN_POINT('',(19.75,10.,4.));
#381=CARTESIAN_POINT('',(19.75,42.75,4.));
#382=CARTESIAN_POINT('',(19.75,10.,7.));
#383=CARTESIAN_POINT('',(19.75,10.,6.));
#384=CARTESIAN_POINT('Origin',(19.75,5.,7.));
#385=CARTESIAN_POINT('',(19.75,5.,10.));
#386=CARTESIAN_POINT('Origin',(19.75,5.,8.));
#387=CARTESIAN_POINT('Origin',(12.5,35.,4.));
#388=CARTESIAN_POINT('',(25.,69.5,4.));
#389=CARTESIAN_POINT('',(25.,0.,4.));
#390=CARTESIAN_POINT('',(12.5,69.5,4.));
#391=CARTESIAN_POINT('',(18.75,10.,4.));
#392=CARTESIAN_POINT('',(10.9,60.,4.));
#393=CARTESIAN_POINT('Origin',(12.5,60.,4.));
#394=CARTESIAN_POINT('Origin',(25.,0.,0.));
#395=CARTESIAN_POINT('',(25.,69.5,1.));
#396=CARTESIAN_POINT('Origin',(12.5,69.5,2.));
#397=CARTESIAN_POINT('Origin',(25.,5.,7.));
#398=CARTESIAN_POINT('',(25.,10.,7.));
#399=CARTESIAN_POINT('Origin',(25.,5.,8.));
#400=CARTESIAN_POINT('',(25.,5.,10.));
#401=CARTESIAN_POINT('Origin',(25.,10.,12.));
#402=CARTESIAN_POINT('Origin',(12.5,60.,4.));
#403=CARTESIAN_POINT('',(10.9,60.,9.));
#404=CARTESIAN_POINT('Origin',(12.5,60.,9.));
#405=CARTESIAN_POINT('',(10.9,60.,4.));
#406=CARTESIAN_POINT('Origin',(12.5,60.,9.));
#407=UNCERTAINTY_MEASURE_WITH_UNIT(LENGTH_MEASURE(0.01),#411,
'DISTANCE_ACCURACY_VALUE',
'Maximum model space distance between geometric entities at asserted c
onnectivities');
#408=UNCERTAINTY_MEASURE_WITH_UNIT(LENGTH_MEASURE(0.01),#411,
'DISTANCE_ACCURACY_VALUE',
'Maximum model space distance between geometric entities at asserted c
onnectivities');
#409=(
GEOMETRIC_REPRESENTATION_CONTEXT(3)
GLOBAL_UNCERTAINTY_ASSIGNED_CONTEXT((#407))
GLOBAL_UNIT_ASSIGNED_CONTEXT((#411,#413,#414))
REPRESENTATION_CONTEXT('','3D')
);
#410=(
GEOMETRIC_REPRESENTATION_CONTEXT(3)
GLOBAL_UNCERTAINTY_ASSIGNED_CONTEXT((#408))
GLOBAL_UNIT_ASSIGNED_CONTEXT((#411,#413,#414))
REPRESENTATION_CONTEXT('','3D')
);
#411=(
LENGTH_UNIT()
NAMED_UNIT(*)
SI_UNIT(.MILLI.,.METRE.)
);
#412=(
LENGTH_UNIT()
NAMED_UNIT(*)
SI_UNIT(.CENTI.,.METRE.)
);
#413=(
NAMED_UNIT(*)
PLANE_ANGLE_UNIT()
SI_UNIT($,.RADIAN.)
);
#414=(
NAMED_UNIT(*)
SI_UNIT($,.STERADIAN.)
SOLID_ANGLE_UNIT()
);
#415=SHAPE_DEFINITION_REPRESENTATION(#416,#417);
#416=PRODUCT_DEFINITION_SHAPE('',$,#419);
#417=SHAPE_REPRESENTATION('',(#259),#409);
#418=PRODUCT_DEFINITION_CONTEXT('part definition',#423,'design');
#419=PRODUCT_DEFINITION('right_black','right_black',#420,#418);
#420=PRODUCT_DEFINITION_FORMATION('',$,#425);
#421=PRODUCT_RELATED_PRODUCT_CATEGORY('right_black','right_black',(#425));
#422=APPLICATION_PROTOCOL_DEFINITION('international standard',
'automotive_design',2009,#423);
#423=APPLICATION_CONTEXT(
'Core Data for Automotive Mechanical Design Process');
#424=PRODUCT_CONTEXT('part definition',#423,'mechanical');
#425=PRODUCT('right_black','right_black',$,(#424));
#426=PRESENTATION_STYLE_ASSIGNMENT((#427));
#427=SURFACE_STYLE_USAGE(.BOTH.,#430);
#428=SURFACE_STYLE_RENDERING_WITH_PROPERTIES($,#434,(#429));
#429=SURFACE_STYLE_TRANSPARENT(0.);
#430=SURFACE_SIDE_STYLE('',(#431,#428));
#431=SURFACE_STYLE_FILL_AREA(#432);
#432=FILL_AREA_STYLE('',(#433));
#433=FILL_AREA_STYLE_COLOUR('',#434);
#434=COLOUR_RGB('',0.749019607843137,0.749019607843137,0.749019607843137);
ENDSEC;
END-ISO-10303-21;
