ISO-10303-21;
HEADER;
/* Generated by software containing ST-Developer
 * from STEP Tools, Inc. (www.steptools.com) 
 */

FILE_DESCRIPTION(
/* description */ (''),
/* implementation_level */ '2;1');

FILE_NAME(
/* name */ 'halfnote.stp',
/* time_stamp */ '2026-01-05T11:46:39+01:00',
/* author */ ('Wendelin'),
/* organization */ (''),
/* preprocessor_version */ 'ST-DEVELOPER v20',
/* originating_system */ 'Autodesk Inventor 2024',
/* authorisation */ '');

FILE_SCHEMA (('AUTOMOTIVE_DESIGN { 1 0 10303 214 3 1 1 }'));
ENDSEC;

DATA;
#10=MECHANICAL_DESIGN_GEOMETRIC_PRESENTATION_REPRESENTATION('',(#13),#410);
#11=SHAPE_REPRESENTATION_RELATIONSHIP('SRR','None',#417,#12);
#12=ADVANCED_BREP_SHAPE_REPRESENTATION('',(#14),#409);
#13=STYLED_ITEM('',(#426),#14);
#14=MANIFOLD_SOLID_BREP('Volumenk\X\F6rper2_1',#237);
#15=CYLINDRICAL_SURFACE('',#267,5.);
#16=CYLINDRICAL_SURFACE('',#269,1.6);
#17=CYLINDRICAL_SURFACE('',#278,2.);
#18=FACE_BOUND('',#45,.T.);
#19=FACE_BOUND('',#51,.T.);
#20=FACE_BOUND('',#54,.T.);
#21=CIRCLE('',#265,5.);
#22=CIRCLE('',#266,2.);
#23=CIRCLE('',#268,5.);
#24=CIRCLE('',#270,1.6);
#25=CIRCLE('',#271,1.6);
#26=CIRCLE('',#275,2.);
#27=FACE_OUTER_BOUND('',#40,.T.);
#28=FACE_OUTER_BOUND('',#41,.T.);
#29=FACE_OUTER_BOUND('',#42,.T.);
#30=FACE_OUTER_BOUND('',#43,.T.);
#31=FACE_OUTER_BOUND('',#44,.T.);
#32=FACE_OUTER_BOUND('',#46,.T.);
#33=FACE_OUTER_BOUND('',#47,.T.);
#34=FACE_OUTER_BOUND('',#48,.T.);
#35=FACE_OUTER_BOUND('',#49,.T.);
#36=FACE_OUTER_BOUND('',#50,.T.);
#37=FACE_OUTER_BOUND('',#52,.T.);
#38=FACE_OUTER_BOUND('',#53,.T.);
#39=FACE_OUTER_BOUND('',#55,.T.);
#40=EDGE_LOOP('',(#154,#155,#156,#157));
#41=EDGE_LOOP('',(#158,#159,#160,#161,#162,#163));
#42=EDGE_LOOP('',(#164,#165,#166,#167));
#43=EDGE_LOOP('',(#168,#169,#170,#171));
#44=EDGE_LOOP('',(#172,#173,#174,#175,#176,#177));
#45=EDGE_LOOP('',(#178));
#46=EDGE_LOOP('',(#179,#180,#181,#182));
#47=EDGE_LOOP('',(#183,#184,#185,#186));
#48=EDGE_LOOP('',(#187));
#49=EDGE_LOOP('',(#188,#189,#190,#191,#192,#193));
#50=EDGE_LOOP('',(#194,#195,#196,#197,#198,#199));
#51=EDGE_LOOP('',(#200));
#52=EDGE_LOOP('',(#201,#202,#203,#204));
#53=EDGE_LOOP('',(#205,#206,#207,#208));
#54=EDGE_LOOP('',(#209));
#55=EDGE_LOOP('',(#210,#211,#212,#213));
#56=LINE('',#347,#80);
#57=LINE('',#349,#81);
#58=LINE('',#351,#82);
#59=LINE('',#352,#83);
#60=LINE('',#355,#84);
#61=LINE('',#357,#85);
#62=LINE('',#359,#86);
#63=LINE('',#361,#87);
#64=LINE('',#362,#88);
#65=LINE('',#365,#89);
#66=LINE('',#366,#90);
#67=LINE('',#369,#91);
#68=LINE('',#370,#92);
#69=LINE('',#375,#93);
#70=LINE('',#377,#94);
#71=LINE('',#378,#95);
#72=LINE('',#384,#96);
#73=LINE('',#389,#97);
#74=LINE('',#394,#98);
#75=LINE('',#395,#99);
#76=LINE('',#398,#100);
#77=LINE('',#399,#101);
#78=LINE('',#403,#102);
#79=LINE('',#406,#103);
#80=VECTOR('',#283,10.);
#81=VECTOR('',#284,10.);
#82=VECTOR('',#285,10.);
#83=VECTOR('',#286,10.);
#84=VECTOR('',#289,10.);
#85=VECTOR('',#290,10.);
#86=VECTOR('',#291,10.);
#87=VECTOR('',#292,10.);
#88=VECTOR('',#293,10.);
#89=VECTOR('',#296,10.);
#90=VECTOR('',#297,10.);
#91=VECTOR('',#300,10.);
#92=VECTOR('',#301,10.);
#93=VECTOR('',#306,10.);
#94=VECTOR('',#307,10.);
#95=VECTOR('',#308,10.);
#96=VECTOR('',#315,10.);
#97=VECTOR('',#320,1.6);
#98=VECTOR('',#327,10.);
#99=VECTOR('',#328,10.);
#100=VECTOR('',#331,10.);
#101=VECTOR('',#332,10.);
#102=VECTOR('',#337,10.);
#103=VECTOR('',#342,2.);
#104=VERTEX_POINT('',#345);
#105=VERTEX_POINT('',#346);
#106=VERTEX_POINT('',#348);
#107=VERTEX_POINT('',#350);
#108=VERTEX_POINT('',#354);
#109=VERTEX_POINT('',#356);
#110=VERTEX_POINT('',#358);
#111=VERTEX_POINT('',#360);
#112=VERTEX_POINT('',#364);
#113=VERTEX_POINT('',#368);
#114=VERTEX_POINT('',#372);
#115=VERTEX_POINT('',#374);
#116=VERTEX_POINT('',#376);
#117=VERTEX_POINT('',#379);
#118=VERTEX_POINT('',#382);
#119=VERTEX_POINT('',#386);
#120=VERTEX_POINT('',#388);
#121=VERTEX_POINT('',#393);
#122=VERTEX_POINT('',#397);
#123=VERTEX_POINT('',#400);
#124=EDGE_CURVE('',#104,#105,#56,.T.);
#125=EDGE_CURVE('',#105,#106,#57,.T.);
#126=EDGE_CURVE('',#106,#107,#58,.T.);
#127=EDGE_CURVE('',#107,#104,#59,.T.);
#128=EDGE_CURVE('',#108,#106,#60,.T.);
#129=EDGE_CURVE('',#109,#108,#61,.T.);
#130=EDGE_CURVE('',#110,#109,#62,.T.);
#131=EDGE_CURVE('',#111,#110,#63,.T.);
#132=EDGE_CURVE('',#107,#111,#64,.T.);
#133=EDGE_CURVE('',#105,#112,#65,.T.);
#134=EDGE_CURVE('',#108,#112,#66,.T.);
#135=EDGE_CURVE('',#112,#113,#67,.T.);
#136=EDGE_CURVE('',#113,#109,#68,.T.);
#137=EDGE_CURVE('',#114,#111,#21,.T.);
#138=EDGE_CURVE('',#114,#115,#69,.T.);
#139=EDGE_CURVE('',#116,#115,#70,.T.);
#140=EDGE_CURVE('',#116,#104,#71,.T.);
#141=EDGE_CURVE('',#117,#117,#22,.T.);
#142=EDGE_CURVE('',#110,#118,#23,.T.);
#143=EDGE_CURVE('',#118,#114,#72,.T.);
#144=EDGE_CURVE('',#119,#119,#24,.T.);
#145=EDGE_CURVE('',#119,#120,#73,.T.);
#146=EDGE_CURVE('',#120,#120,#25,.T.);
#147=EDGE_CURVE('',#121,#116,#74,.T.);
#148=EDGE_CURVE('',#113,#121,#75,.T.);
#149=EDGE_CURVE('',#122,#121,#76,.T.);
#150=EDGE_CURVE('',#118,#122,#77,.T.);
#151=EDGE_CURVE('',#123,#123,#26,.T.);
#152=EDGE_CURVE('',#115,#122,#78,.T.);
#153=EDGE_CURVE('',#123,#117,#79,.T.);
#154=ORIENTED_EDGE('',*,*,#124,.T.);
#155=ORIENTED_EDGE('',*,*,#125,.T.);
#156=ORIENTED_EDGE('',*,*,#126,.T.);
#157=ORIENTED_EDGE('',*,*,#127,.T.);
#158=ORIENTED_EDGE('',*,*,#126,.F.);
#159=ORIENTED_EDGE('',*,*,#128,.F.);
#160=ORIENTED_EDGE('',*,*,#129,.F.);
#161=ORIENTED_EDGE('',*,*,#130,.F.);
#162=ORIENTED_EDGE('',*,*,#131,.F.);
#163=ORIENTED_EDGE('',*,*,#132,.F.);
#164=ORIENTED_EDGE('',*,*,#125,.F.);
#165=ORIENTED_EDGE('',*,*,#133,.T.);
#166=ORIENTED_EDGE('',*,*,#134,.F.);
#167=ORIENTED_EDGE('',*,*,#128,.T.);
#168=ORIENTED_EDGE('',*,*,#129,.T.);
#169=ORIENTED_EDGE('',*,*,#134,.T.);
#170=ORIENTED_EDGE('',*,*,#135,.T.);
#171=ORIENTED_EDGE('',*,*,#136,.T.);
#172=ORIENTED_EDGE('',*,*,#127,.F.);
#173=ORIENTED_EDGE('',*,*,#132,.T.);
#174=ORIENTED_EDGE('',*,*,#137,.F.);
#175=ORIENTED_EDGE('',*,*,#138,.T.);
#176=ORIENTED_EDGE('',*,*,#139,.F.);
#177=ORIENTED_EDGE('',*,*,#140,.T.);
#178=ORIENTED_EDGE('',*,*,#141,.T.);
#179=ORIENTED_EDGE('',*,*,#131,.T.);
#180=ORIENTED_EDGE('',*,*,#142,.T.);
#181=ORIENTED_EDGE('',*,*,#143,.T.);
#182=ORIENTED_EDGE('',*,*,#137,.T.);
#183=ORIENTED_EDGE('',*,*,#144,.F.);
#184=ORIENTED_EDGE('',*,*,#145,.T.);
#185=ORIENTED_EDGE('',*,*,#146,.F.);
#186=ORIENTED_EDGE('',*,*,#145,.F.);
#187=ORIENTED_EDGE('',*,*,#144,.T.);
#188=ORIENTED_EDGE('',*,*,#124,.F.);
#189=ORIENTED_EDGE('',*,*,#140,.F.);
#190=ORIENTED_EDGE('',*,*,#147,.F.);
#191=ORIENTED_EDGE('',*,*,#148,.F.);
#192=ORIENTED_EDGE('',*,*,#135,.F.);
#193=ORIENTED_EDGE('',*,*,#133,.F.);
#194=ORIENTED_EDGE('',*,*,#136,.F.);
#195=ORIENTED_EDGE('',*,*,#148,.T.);
#196=ORIENTED_EDGE('',*,*,#149,.F.);
#197=ORIENTED_EDGE('',*,*,#150,.F.);
#198=ORIENTED_EDGE('',*,*,#142,.F.);
#199=ORIENTED_EDGE('',*,*,#130,.T.);
#200=ORIENTED_EDGE('',*,*,#151,.F.);
#201=ORIENTED_EDGE('',*,*,#150,.T.);
#202=ORIENTED_EDGE('',*,*,#152,.F.);
#203=ORIENTED_EDGE('',*,*,#138,.F.);
#204=ORIENTED_EDGE('',*,*,#143,.F.);
#205=ORIENTED_EDGE('',*,*,#149,.T.);
#206=ORIENTED_EDGE('',*,*,#147,.T.);
#207=ORIENTED_EDGE('',*,*,#139,.T.);
#208=ORIENTED_EDGE('',*,*,#152,.T.);
#209=ORIENTED_EDGE('',*,*,#146,.T.);
#210=ORIENTED_EDGE('',*,*,#151,.T.);
#211=ORIENTED_EDGE('',*,*,#153,.T.);
#212=ORIENTED_EDGE('',*,*,#141,.F.);
#213=ORIENTED_EDGE('',*,*,#153,.F.);
#214=PLANE('',#260);
#215=PLANE('',#261);
#216=PLANE('',#262);
#217=PLANE('',#263);
#218=PLANE('',#264);
#219=PLANE('',#272);
#220=PLANE('',#273);
#221=PLANE('',#274);
#222=PLANE('',#276);
#223=PLANE('',#277);
#224=ADVANCED_FACE('',(#27),#214,.T.);
#225=ADVANCED_FACE('',(#28),#215,.F.);
#226=ADVANCED_FACE('',(#29),#216,.T.);
#227=ADVANCED_FACE('',(#30),#217,.T.);
#228=ADVANCED_FACE('',(#31,#18),#218,.T.);
#229=ADVANCED_FACE('',(#32),#15,.T.);
#230=ADVANCED_FACE('',(#33),#16,.T.);
#231=ADVANCED_FACE('',(#34),#219,.T.);
#232=ADVANCED_FACE('',(#35),#220,.F.);
#233=ADVANCED_FACE('',(#36,#19),#221,.F.);
#234=ADVANCED_FACE('',(#37),#222,.T.);
#235=ADVANCED_FACE('',(#38,#20),#223,.T.);
#236=ADVANCED_FACE('',(#39),#17,.F.);
#237=CLOSED_SHELL('',(#224,#225,#226,#227,#228,#229,#230,#231,#232,#233,
#234,#235,#236));
#238=DERIVED_UNIT_ELEMENT(#241,1.);
#239=DERIVED_UNIT_ELEMENT(#412,-3.);
#240=DIMENSIONAL_EXPONENTS(0.,1.,0.,0.,0.,0.,0.);
#241=(
CONVERSION_BASED_UNIT('gram',#243)
MASS_UNIT()
NAMED_UNIT(#240)
);
#242=(
MASS_UNIT()
NAMED_UNIT(*)
SI_UNIT(.KILO.,.GRAM.)
);
#243=MASS_MEASURE_WITH_UNIT(MASS_MEASURE(0.001),#242);
#244=DERIVED_UNIT((#238,#239));
#245=MEASURE_REPRESENTATION_ITEM('density measure',
POSITIVE_RATIO_MEASURE(1.),#244);
#246=PROPERTY_DEFINITION_REPRESENTATION(#251,#248);
#247=PROPERTY_DEFINITION_REPRESENTATION(#252,#249);
#248=REPRESENTATION('material name',(#250),#409);
#249=REPRESENTATION('density',(#245),#409);
#250=DESCRIPTIVE_REPRESENTATION_ITEM('Generisch','Generisch');
#251=PROPERTY_DEFINITION('material property','material name',#419);
#252=PROPERTY_DEFINITION('material property','density of part',#419);
#253=DATE_TIME_ROLE('creation_date');
#254=APPLIED_DATE_AND_TIME_ASSIGNMENT(#255,#253,(#419));
#255=DATE_AND_TIME(#256,#257);
#256=CALENDAR_DATE(2026,4,1);
#257=LOCAL_TIME(0,0,0.,#258);
#258=COORDINATED_UNIVERSAL_TIME_OFFSET(0,0,.BEHIND.);
#259=AXIS2_PLACEMENT_3D('',#343,#279,#280);
#260=AXIS2_PLACEMENT_3D('',#344,#281,#282);
#261=AXIS2_PLACEMENT_3D('',#353,#287,#288);
#262=AXIS2_PLACEMENT_3D('',#363,#294,#295);
#263=AXIS2_PLACEMENT_3D('',#367,#298,#299);
#264=AXIS2_PLACEMENT_3D('',#371,#302,#303);
#265=AXIS2_PLACEMENT_3D('',#373,#304,#305);
#266=AXIS2_PLACEMENT_3D('',#380,#309,#310);
#267=AXIS2_PLACEMENT_3D('',#381,#311,#312);
#268=AXIS2_PLACEMENT_3D('',#383,#313,#314);
#269=AXIS2_PLACEMENT_3D('',#385,#316,#317);
#270=AXIS2_PLACEMENT_3D('',#387,#318,#319);
#271=AXIS2_PLACEMENT_3D('',#390,#321,#322);
#272=AXIS2_PLACEMENT_3D('',#391,#323,#324);
#273=AXIS2_PLACEMENT_3D('',#392,#325,#326);
#274=AXIS2_PLACEMENT_3D('',#396,#329,#330);
#275=AXIS2_PLACEMENT_3D('',#401,#333,#334);
#276=AXIS2_PLACEMENT_3D('',#402,#335,#336);
#277=AXIS2_PLACEMENT_3D('',#404,#338,#339);
#278=AXIS2_PLACEMENT_3D('',#405,#340,#341);
#279=DIRECTION('axis',(0.,0.,1.));
#280=DIRECTION('refdir',(1.,0.,0.));
#281=DIRECTION('center_axis',(-0.707106781186548,0.,-0.707106781186548));
#282=DIRECTION('ref_axis',(-0.707106781186548,0.,0.707106781186548));
#283=DIRECTION('',(0.707106781186548,0.,-0.707106781186548));
#284=DIRECTION('',(0.,-1.,0.));
#285=DIRECTION('',(-0.707106781186548,0.,0.707106781186548));
#286=DIRECTION('',(0.,1.,0.));
#287=DIRECTION('center_axis',(0.,1.,0.));
#288=DIRECTION('ref_axis',(-1.,0.,0.));
#289=DIRECTION('',(-1.,0.,0.));
#290=DIRECTION('',(-0.707106781186547,0.,-0.707106781186548));
#291=DIRECTION('',(0.,0.,-1.));
#292=DIRECTION('',(1.,0.,0.));
#293=DIRECTION('',(0.,0.,1.));
#294=DIRECTION('center_axis',(0.,0.,-1.));
#295=DIRECTION('ref_axis',(-1.,0.,0.));
#296=DIRECTION('',(1.,0.,0.));
#297=DIRECTION('',(0.,1.,0.));
#298=DIRECTION('center_axis',(0.707106781186548,0.,-0.707106781186547));
#299=DIRECTION('ref_axis',(-0.707106781186547,0.,-0.707106781186548));
#300=DIRECTION('',(0.707106781186547,0.,0.707106781186548));
#301=DIRECTION('',(0.,-1.,0.));
#302=DIRECTION('center_axis',(-1.,0.,0.));
#303=DIRECTION('ref_axis',(0.,-1.,0.));
#304=DIRECTION('center_axis',(1.,0.,0.));
#305=DIRECTION('ref_axis',(0.,-0.707106781186547,0.707106781186547));
#306=DIRECTION('',(0.,0.,-1.));
#307=DIRECTION('',(0.,-1.,0.));
#308=DIRECTION('',(0.,0.,-1.));
#309=DIRECTION('center_axis',(1.,0.,0.));
#310=DIRECTION('ref_axis',(0.,0.,-1.));
#311=DIRECTION('center_axis',(-1.,0.,0.));
#312=DIRECTION('ref_axis',(0.,0.707106781186547,0.707106781186547));
#313=DIRECTION('center_axis',(-1.,0.,0.));
#314=DIRECTION('ref_axis',(0.,0.707106781186547,0.707106781186547));
#315=DIRECTION('',(-1.,0.,0.));
#316=DIRECTION('center_axis',(0.,0.,1.));
#317=DIRECTION('ref_axis',(1.,0.,0.));
#318=DIRECTION('center_axis',(0.,0.,1.));
#319=DIRECTION('ref_axis',(1.,0.,0.));
#320=DIRECTION('',(0.,0.,-1.));
#321=DIRECTION('center_axis',(0.,0.,-1.));
#322=DIRECTION('ref_axis',(1.,0.,0.));
#323=DIRECTION('center_axis',(0.,0.,1.));
#324=DIRECTION('ref_axis',(1.,0.,0.));
#325=DIRECTION('center_axis',(0.,-1.,0.));
#326=DIRECTION('ref_axis',(1.,0.,0.));
#327=DIRECTION('',(-1.,0.,0.));
#328=DIRECTION('',(0.,0.,1.));
#329=DIRECTION('center_axis',(-1.,0.,0.));
#330=DIRECTION('ref_axis',(0.,-1.,0.));
#331=DIRECTION('',(0.,1.,0.));
#332=DIRECTION('',(0.,0.,-1.));
#333=DIRECTION('center_axis',(1.,0.,0.));
#334=DIRECTION('ref_axis',(0.,0.,-1.));
#335=DIRECTION('center_axis',(0.,1.,0.));
#336=DIRECTION('ref_axis',(0.,0.,-1.));
#337=DIRECTION('',(1.,0.,0.));
#338=DIRECTION('center_axis',(0.,0.,1.));
#339=DIRECTION('ref_axis',(1.,0.,0.));
#340=DIRECTION('center_axis',(-1.,0.,0.));
#341=DIRECTION('ref_axis',(0.,0.,-1.));
#342=DIRECTION('',(-1.,0.,0.));
#343=CARTESIAN_POINT('',(0.,0.,0.));
#344=CARTESIAN_POINT('Origin',(1.,47.6,-4.));
#345=CARTESIAN_POINT('',(0.,50.2,-3.));
#346=CARTESIAN_POINT('',(2.,50.2,-5.));
#347=CARTESIAN_POINT('',(-0.25,50.2,-2.75));
#348=CARTESIAN_POINT('',(2.,0.399999999999996,-5.));
#349=CARTESIAN_POINT('',(2.,47.6,-5.));
#350=CARTESIAN_POINT('',(0.,0.399999999999991,-3.));
#351=CARTESIAN_POINT('',(3.5,0.399999999999996,-6.5));
#352=CARTESIAN_POINT('',(0.,47.6,-3.));
#353=CARTESIAN_POINT('Origin',(10.,0.399999999999996,-5.));
#354=CARTESIAN_POINT('',(8.,0.399999999999996,-5.));
#355=CARTESIAN_POINT('',(7.5,0.399999999999996,-5.));
#356=CARTESIAN_POINT('',(10.,0.399999999999991,-3.));
#357=CARTESIAN_POINT('',(9.,0.399999999999996,-4.));
#358=CARTESIAN_POINT('',(10.,0.399999999999996,8.95959179422653));
#359=CARTESIAN_POINT('',(10.,0.399999999999991,-2.5));
#360=CARTESIAN_POINT('',(0.,0.399999999999996,8.95959179422653));
#361=CARTESIAN_POINT('',(25.,0.399999999999996,8.95959179422653));
#362=CARTESIAN_POINT('',(0.,0.399999999999991,-2.5));
#363=CARTESIAN_POINT('Origin',(5.,25.2,-5.));
#364=CARTESIAN_POINT('',(8.,50.2,-5.));
#365=CARTESIAN_POINT('',(0.,50.2,-5.));
#366=CARTESIAN_POINT('',(8.,37.7,-5.));
#367=CARTESIAN_POINT('Origin',(9.,37.7,-4.));
#368=CARTESIAN_POINT('',(10.,50.2,-3.));
#369=CARTESIAN_POINT('',(7.75,50.2,-5.25));
#370=CARTESIAN_POINT('',(10.,37.7,-3.));
#371=CARTESIAN_POINT('Origin',(0.,70.,0.));
#372=CARTESIAN_POINT('',(0.,10.,7.));
#373=CARTESIAN_POINT('Origin',(0.,5.,7.));
#374=CARTESIAN_POINT('',(0.,10.,4.));
#375=CARTESIAN_POINT('',(0.,10.,4.));
#376=CARTESIAN_POINT('',(0.,50.2,4.));
#377=CARTESIAN_POINT('',(0.,70.,4.));
#378=CARTESIAN_POINT('',(0.,50.2,0.));
#379=CARTESIAN_POINT('',(0.,5.,10.));
#380=CARTESIAN_POINT('Origin',(0.,5.,8.));
#381=CARTESIAN_POINT('Origin',(25.,5.,7.));
#382=CARTESIAN_POINT('',(10.,10.,7.));
#383=CARTESIAN_POINT('Origin',(10.,5.,7.));
#384=CARTESIAN_POINT('',(25.,10.,7.));
#385=CARTESIAN_POINT('Origin',(5.,45.2,4.));
#386=CARTESIAN_POINT('',(3.4,45.2,9.));
#387=CARTESIAN_POINT('Origin',(5.,45.2,9.));
#388=CARTESIAN_POINT('',(3.4,45.2,4.));
#389=CARTESIAN_POINT('',(3.4,45.2,4.));
#390=CARTESIAN_POINT('Origin',(5.,45.2,4.));
#391=CARTESIAN_POINT('Origin',(5.,45.2,9.));
#392=CARTESIAN_POINT('Origin',(0.,50.2,0.));
#393=CARTESIAN_POINT('',(10.,50.2,4.));
#394=CARTESIAN_POINT('',(6.25,50.2,4.));
#395=CARTESIAN_POINT('',(10.,50.2,0.));
#396=CARTESIAN_POINT('Origin',(10.,50.2,0.));
#397=CARTESIAN_POINT('',(10.,10.,4.));
#398=CARTESIAN_POINT('',(10.,42.6,4.));
#399=CARTESIAN_POINT('',(10.,10.,6.));
#400=CARTESIAN_POINT('',(10.,5.,10.));
#401=CARTESIAN_POINT('Origin',(10.,5.,8.));
#402=CARTESIAN_POINT('Origin',(25.,10.,12.));
#403=CARTESIAN_POINT('',(18.75,10.,4.));
#404=CARTESIAN_POINT('Origin',(12.5,35.,4.));
#405=CARTESIAN_POINT('Origin',(25.,5.,8.));
#406=CARTESIAN_POINT('',(25.,5.,10.));
#407=UNCERTAINTY_MEASURE_WITH_UNIT(LENGTH_MEASURE(0.01),#411,
'DISTANCE_ACCURACY_VALUE',
'Maximum model space distance between geometric entities at asserted c
onnectivities');
#408=UNCERTAINTY_MEASURE_WITH_UNIT(LENGTH_MEASURE(0.01),#411,
'DISTANCE_ACCURACY_VALUE',
'Maximum model space distance between geometric entities at asserted c
onnectivities');
#409=(
GEOMETRIC_REPRESENTATION_CONTEXT(3)
GLOBAL_UNCERTAINTY_ASSIGNED_CONTEXT((#407))
GLOBAL_UNIT_ASSIGNED_CONTEXT((#411,#413,#414))
REPRESENTATION_CONTEXT('','3D')
);
#410=(
GEOMETRIC_REPRESENTATION_CONTEXT(3)
GLOBAL_UNCERTAINTY_ASSIGNED_CONTEXT((#408))
GLOBAL_UNIT_ASSIGNED_CONTEXT((#411,#413,#414))
REPRESENTATION_CONTEXT('','3D')
);
#411=(
LENGTH_UNIT()
NAMED_UNIT(*)
SI_UNIT(.MILLI.,.METRE.)
);
#412=(
LENGTH_UNIT()
NAMED_UNIT(*)
SI_UNIT(.CENTI.,.METRE.)
);
#413=(
NAMED_UNIT(*)
PLANE_ANGLE_UNIT()
SI_UNIT($,.RADIAN.)
);
#414=(
NAMED_UNIT(*)
SI_UNIT($,.STERADIAN.)
SOLID_ANGLE_UNIT()
);
#415=SHAPE_DEFINITION_REPRESENTATION(#416,#417);
#416=PRODUCT_DEFINITION_SHAPE('',$,#419);
#417=SHAPE_REPRESENTATION('',(#259),#409);
#418=PRODUCT_DEFINITION_CONTEXT('part definition',#423,'design');
#419=PRODUCT_DEFINITION('halfnote','halfnote',#420,#418);
#420=PRODUCT_DEFINITION_FORMATION('',$,#425);
#421=PRODUCT_RELATED_PRODUCT_CATEGORY('halfnote','halfnote',(#425));
#422=APPLICATION_PROTOCOL_DEFINITION('international standard',
'automotive_design',2009,#423);
#423=APPLICATION_CONTEXT(
'Core Data for Automotive Mechanical Design Process');
#424=PRODUCT_CONTEXT('part definition',#423,'mechanical');
#425=PRODUCT('halfnote','halfnote',$,(#424));
#426=PRESENTATION_STYLE_ASSIGNMENT((#427));
#427=SURFACE_STYLE_USAGE(.BOTH.,#430);
#428=SURFACE_STYLE_RENDERING_WITH_PROPERTIES($,#434,(#429));
#429=SURFACE_STYLE_TRANSPARENT(0.);
#430=SURFACE_SIDE_STYLE('',(#431,#428));
#431=SURFACE_STYLE_FILL_AREA(#432);
#432=FILL_AREA_STYLE('',(#433));
#433=FILL_AREA_STYLE_COLOUR('',#434);
#434=COLOUR_RGB('',0.749019607843137,0.749019607843137,0.749019607843137);
ENDSEC;
END-ISO-10303-21;
