ISO-10303-21;
HEADER;
/* Generated by software containing ST-Developer
 * from STEP Tools, Inc. (www.steptools.com) 
 */

FILE_DESCRIPTION(
/* description */ (''),
/* implementation_level */ '2;1');

FILE_NAME(
/* name */ 'note.stp',
/* time_stamp */ '2026-01-05T11:46:29+01:00',
/* author */ ('Wendelin'),
/* organization */ (''),
/* preprocessor_version */ 'ST-DEVELOPER v20',
/* originating_system */ 'Autodesk Inventor 2024',
/* authorisation */ '');

FILE_SCHEMA (('AUTOMOTIVE_DESIGN { 1 0 10303 214 3 1 1 }'));
ENDSEC;

DATA;
#10=MECHANICAL_DESIGN_GEOMETRIC_PRESENTATION_REPRESENTATION('',(#13),#344);
#11=SHAPE_REPRESENTATION_RELATIONSHIP('SRR','None',#351,#12);
#12=ADVANCED_BREP_SHAPE_REPRESENTATION('',(#14),#343);
#13=STYLED_ITEM('',(#360),#14);
#14=MANIFOLD_SOLID_BREP('Volumenk\X\F6rper2',#195);
#15=CYLINDRICAL_SURFACE('',#222,5.);
#16=CYLINDRICAL_SURFACE('',#228,2.);
#17=CYLINDRICAL_SURFACE('',#232,1.6);
#18=FACE_BOUND('',#40,.T.);
#19=FACE_BOUND('',#45,.T.);
#20=FACE_BOUND('',#49,.T.);
#21=CIRCLE('',#220,5.);
#22=CIRCLE('',#221,2.);
#23=CIRCLE('',#223,5.);
#24=CIRCLE('',#227,2.);
#25=CIRCLE('',#231,1.6);
#26=CIRCLE('',#233,1.6);
#27=FACE_OUTER_BOUND('',#38,.T.);
#28=FACE_OUTER_BOUND('',#39,.T.);
#29=FACE_OUTER_BOUND('',#41,.T.);
#30=FACE_OUTER_BOUND('',#42,.T.);
#31=FACE_OUTER_BOUND('',#43,.T.);
#32=FACE_OUTER_BOUND('',#44,.T.);
#33=FACE_OUTER_BOUND('',#46,.T.);
#34=FACE_OUTER_BOUND('',#47,.T.);
#35=FACE_OUTER_BOUND('',#48,.T.);
#36=FACE_OUTER_BOUND('',#50,.T.);
#37=FACE_OUTER_BOUND('',#51,.T.);
#38=EDGE_LOOP('',(#128,#129,#130,#131));
#39=EDGE_LOOP('',(#132,#133,#134,#135,#136,#137));
#40=EDGE_LOOP('',(#138));
#41=EDGE_LOOP('',(#139,#140,#141,#142));
#42=EDGE_LOOP('',(#143,#144,#145,#146));
#43=EDGE_LOOP('',(#147,#148,#149,#150));
#44=EDGE_LOOP('',(#151,#152,#153,#154,#155,#156));
#45=EDGE_LOOP('',(#157));
#46=EDGE_LOOP('',(#158,#159,#160,#161));
#47=EDGE_LOOP('',(#162,#163,#164,#165));
#48=EDGE_LOOP('',(#166,#167,#168,#169));
#49=EDGE_LOOP('',(#170));
#50=EDGE_LOOP('',(#171,#172,#173,#174));
#51=EDGE_LOOP('',(#175));
#52=LINE('',#293,#70);
#53=LINE('',#295,#71);
#54=LINE('',#297,#72);
#55=LINE('',#298,#73);
#56=LINE('',#303,#74);
#57=LINE('',#305,#75);
#58=LINE('',#307,#76);
#59=LINE('',#308,#77);
#60=LINE('',#314,#78);
#61=LINE('',#317,#79);
#62=LINE('',#319,#80);
#63=LINE('',#320,#81);
#64=LINE('',#322,#82);
#65=LINE('',#325,#83);
#66=LINE('',#326,#84);
#67=LINE('',#330,#85);
#68=LINE('',#332,#86);
#69=LINE('',#339,#87);
#70=VECTOR('',#239,10.);
#71=VECTOR('',#240,10.);
#72=VECTOR('',#241,10.);
#73=VECTOR('',#242,10.);
#74=VECTOR('',#247,10.);
#75=VECTOR('',#248,10.);
#76=VECTOR('',#249,10.);
#77=VECTOR('',#250,10.);
#78=VECTOR('',#257,10.);
#79=VECTOR('',#260,10.);
#80=VECTOR('',#261,10.);
#81=VECTOR('',#262,10.);
#82=VECTOR('',#265,10.);
#83=VECTOR('',#268,10.);
#84=VECTOR('',#269,10.);
#85=VECTOR('',#274,2.);
#86=VECTOR('',#277,10.);
#87=VECTOR('',#286,1.6);
#88=VERTEX_POINT('',#291);
#89=VERTEX_POINT('',#292);
#90=VERTEX_POINT('',#294);
#91=VERTEX_POINT('',#296);
#92=VERTEX_POINT('',#300);
#93=VERTEX_POINT('',#302);
#94=VERTEX_POINT('',#304);
#95=VERTEX_POINT('',#306);
#96=VERTEX_POINT('',#309);
#97=VERTEX_POINT('',#312);
#98=VERTEX_POINT('',#316);
#99=VERTEX_POINT('',#318);
#100=VERTEX_POINT('',#324);
#101=VERTEX_POINT('',#327);
#102=VERTEX_POINT('',#334);
#103=VERTEX_POINT('',#337);
#104=EDGE_CURVE('',#88,#89,#52,.T.);
#105=EDGE_CURVE('',#90,#88,#53,.T.);
#106=EDGE_CURVE('',#91,#90,#54,.T.);
#107=EDGE_CURVE('',#89,#91,#55,.T.);
#108=EDGE_CURVE('',#92,#88,#21,.T.);
#109=EDGE_CURVE('',#92,#93,#56,.T.);
#110=EDGE_CURVE('',#94,#93,#57,.T.);
#111=EDGE_CURVE('',#94,#95,#58,.T.);
#112=EDGE_CURVE('',#95,#90,#59,.T.);
#113=EDGE_CURVE('',#96,#96,#22,.T.);
#114=EDGE_CURVE('',#89,#97,#23,.T.);
#115=EDGE_CURVE('',#97,#92,#60,.T.);
#116=EDGE_CURVE('',#95,#98,#61,.T.);
#117=EDGE_CURVE('',#99,#94,#62,.T.);
#118=EDGE_CURVE('',#98,#99,#63,.T.);
#119=EDGE_CURVE('',#91,#98,#64,.T.);
#120=EDGE_CURVE('',#100,#99,#65,.T.);
#121=EDGE_CURVE('',#100,#97,#66,.T.);
#122=EDGE_CURVE('',#101,#101,#24,.T.);
#123=EDGE_CURVE('',#101,#96,#67,.T.);
#124=EDGE_CURVE('',#93,#100,#68,.T.);
#125=EDGE_CURVE('',#102,#102,#25,.T.);
#126=EDGE_CURVE('',#103,#103,#26,.T.);
#127=EDGE_CURVE('',#103,#102,#69,.T.);
#128=ORIENTED_EDGE('',*,*,#104,.F.);
#129=ORIENTED_EDGE('',*,*,#105,.F.);
#130=ORIENTED_EDGE('',*,*,#106,.F.);
#131=ORIENTED_EDGE('',*,*,#107,.F.);
#132=ORIENTED_EDGE('',*,*,#105,.T.);
#133=ORIENTED_EDGE('',*,*,#108,.F.);
#134=ORIENTED_EDGE('',*,*,#109,.T.);
#135=ORIENTED_EDGE('',*,*,#110,.F.);
#136=ORIENTED_EDGE('',*,*,#111,.T.);
#137=ORIENTED_EDGE('',*,*,#112,.T.);
#138=ORIENTED_EDGE('',*,*,#113,.T.);
#139=ORIENTED_EDGE('',*,*,#104,.T.);
#140=ORIENTED_EDGE('',*,*,#114,.T.);
#141=ORIENTED_EDGE('',*,*,#115,.T.);
#142=ORIENTED_EDGE('',*,*,#108,.T.);
#143=ORIENTED_EDGE('',*,*,#116,.F.);
#144=ORIENTED_EDGE('',*,*,#111,.F.);
#145=ORIENTED_EDGE('',*,*,#117,.F.);
#146=ORIENTED_EDGE('',*,*,#118,.F.);
#147=ORIENTED_EDGE('',*,*,#106,.T.);
#148=ORIENTED_EDGE('',*,*,#112,.F.);
#149=ORIENTED_EDGE('',*,*,#116,.T.);
#150=ORIENTED_EDGE('',*,*,#119,.F.);
#151=ORIENTED_EDGE('',*,*,#107,.T.);
#152=ORIENTED_EDGE('',*,*,#119,.T.);
#153=ORIENTED_EDGE('',*,*,#118,.T.);
#154=ORIENTED_EDGE('',*,*,#120,.F.);
#155=ORIENTED_EDGE('',*,*,#121,.T.);
#156=ORIENTED_EDGE('',*,*,#114,.F.);
#157=ORIENTED_EDGE('',*,*,#122,.T.);
#158=ORIENTED_EDGE('',*,*,#122,.F.);
#159=ORIENTED_EDGE('',*,*,#123,.T.);
#160=ORIENTED_EDGE('',*,*,#113,.F.);
#161=ORIENTED_EDGE('',*,*,#123,.F.);
#162=ORIENTED_EDGE('',*,*,#115,.F.);
#163=ORIENTED_EDGE('',*,*,#121,.F.);
#164=ORIENTED_EDGE('',*,*,#124,.F.);
#165=ORIENTED_EDGE('',*,*,#109,.F.);
#166=ORIENTED_EDGE('',*,*,#117,.T.);
#167=ORIENTED_EDGE('',*,*,#110,.T.);
#168=ORIENTED_EDGE('',*,*,#124,.T.);
#169=ORIENTED_EDGE('',*,*,#120,.T.);
#170=ORIENTED_EDGE('',*,*,#125,.T.);
#171=ORIENTED_EDGE('',*,*,#126,.F.);
#172=ORIENTED_EDGE('',*,*,#127,.T.);
#173=ORIENTED_EDGE('',*,*,#125,.F.);
#174=ORIENTED_EDGE('',*,*,#127,.F.);
#175=ORIENTED_EDGE('',*,*,#126,.T.);
#176=PLANE('',#218);
#177=PLANE('',#219);
#178=PLANE('',#224);
#179=PLANE('',#225);
#180=PLANE('',#226);
#181=PLANE('',#229);
#182=PLANE('',#230);
#183=PLANE('',#234);
#184=ADVANCED_FACE('',(#27),#176,.F.);
#185=ADVANCED_FACE('',(#28,#18),#177,.T.);
#186=ADVANCED_FACE('',(#29),#15,.T.);
#187=ADVANCED_FACE('',(#30),#178,.F.);
#188=ADVANCED_FACE('',(#31),#179,.F.);
#189=ADVANCED_FACE('',(#32,#19),#180,.T.);
#190=ADVANCED_FACE('',(#33),#16,.F.);
#191=ADVANCED_FACE('',(#34),#181,.T.);
#192=ADVANCED_FACE('',(#35,#20),#182,.T.);
#193=ADVANCED_FACE('',(#36),#17,.T.);
#194=ADVANCED_FACE('',(#37),#183,.T.);
#195=CLOSED_SHELL('',(#184,#185,#186,#187,#188,#189,#190,#191,#192,#193,
#194));
#196=DERIVED_UNIT_ELEMENT(#199,1.);
#197=DERIVED_UNIT_ELEMENT(#346,-3.);
#198=DIMENSIONAL_EXPONENTS(0.,1.,0.,0.,0.,0.,0.);
#199=(
CONVERSION_BASED_UNIT('gram',#201)
MASS_UNIT()
NAMED_UNIT(#198)
);
#200=(
MASS_UNIT()
NAMED_UNIT(*)
SI_UNIT(.KILO.,.GRAM.)
);
#201=MASS_MEASURE_WITH_UNIT(MASS_MEASURE(0.001),#200);
#202=DERIVED_UNIT((#196,#197));
#203=MEASURE_REPRESENTATION_ITEM('density measure',
POSITIVE_RATIO_MEASURE(1.),#202);
#204=PROPERTY_DEFINITION_REPRESENTATION(#209,#206);
#205=PROPERTY_DEFINITION_REPRESENTATION(#210,#207);
#206=REPRESENTATION('material name',(#208),#343);
#207=REPRESENTATION('density',(#203),#343);
#208=DESCRIPTIVE_REPRESENTATION_ITEM('Generisch','Generisch');
#209=PROPERTY_DEFINITION('material property','material name',#353);
#210=PROPERTY_DEFINITION('material property','density of part',#353);
#211=DATE_TIME_ROLE('creation_date');
#212=APPLIED_DATE_AND_TIME_ASSIGNMENT(#213,#211,(#353));
#213=DATE_AND_TIME(#214,#215);
#214=CALENDAR_DATE(2026,4,1);
#215=LOCAL_TIME(0,0,0.,#216);
#216=COORDINATED_UNIVERSAL_TIME_OFFSET(0,0,.BEHIND.);
#217=AXIS2_PLACEMENT_3D('',#289,#235,#236);
#218=AXIS2_PLACEMENT_3D('',#290,#237,#238);
#219=AXIS2_PLACEMENT_3D('',#299,#243,#244);
#220=AXIS2_PLACEMENT_3D('',#301,#245,#246);
#221=AXIS2_PLACEMENT_3D('',#310,#251,#252);
#222=AXIS2_PLACEMENT_3D('',#311,#253,#254);
#223=AXIS2_PLACEMENT_3D('',#313,#255,#256);
#224=AXIS2_PLACEMENT_3D('',#315,#258,#259);
#225=AXIS2_PLACEMENT_3D('',#321,#263,#264);
#226=AXIS2_PLACEMENT_3D('',#323,#266,#267);
#227=AXIS2_PLACEMENT_3D('',#328,#270,#271);
#228=AXIS2_PLACEMENT_3D('',#329,#272,#273);
#229=AXIS2_PLACEMENT_3D('',#331,#275,#276);
#230=AXIS2_PLACEMENT_3D('',#333,#278,#279);
#231=AXIS2_PLACEMENT_3D('',#335,#280,#281);
#232=AXIS2_PLACEMENT_3D('',#336,#282,#283);
#233=AXIS2_PLACEMENT_3D('',#338,#284,#285);
#234=AXIS2_PLACEMENT_3D('',#340,#287,#288);
#235=DIRECTION('axis',(0.,0.,1.));
#236=DIRECTION('refdir',(1.,0.,0.));
#237=DIRECTION('center_axis',(0.,1.,0.));
#238=DIRECTION('ref_axis',(0.,0.,1.));
#239=DIRECTION('',(1.,0.,0.));
#240=DIRECTION('',(0.,0.,1.));
#241=DIRECTION('',(-1.,0.,0.));
#242=DIRECTION('',(0.,0.,-1.));
#243=DIRECTION('center_axis',(-1.,0.,0.));
#244=DIRECTION('ref_axis',(0.,-1.,0.));
#245=DIRECTION('center_axis',(1.,0.,0.));
#246=DIRECTION('ref_axis',(0.,-0.707106781186547,0.707106781186547));
#247=DIRECTION('',(0.,0.,-1.));
#248=DIRECTION('',(0.,-1.,0.));
#249=DIRECTION('',(0.,0.,-1.));
#250=DIRECTION('',(0.,-1.,0.));
#251=DIRECTION('center_axis',(1.,0.,0.));
#252=DIRECTION('ref_axis',(0.,0.,-1.));
#253=DIRECTION('center_axis',(-1.,0.,0.));
#254=DIRECTION('ref_axis',(0.,0.707106781186547,0.707106781186547));
#255=DIRECTION('center_axis',(-1.,0.,0.));
#256=DIRECTION('ref_axis',(0.,-0.707106781186547,0.707106781186547));
#257=DIRECTION('',(-1.,0.,0.));
#258=DIRECTION('center_axis',(0.,-1.,0.));
#259=DIRECTION('ref_axis',(0.,0.,-1.));
#260=DIRECTION('',(1.,0.,0.));
#261=DIRECTION('',(-1.,0.,0.));
#262=DIRECTION('',(0.,0.,1.));
#263=DIRECTION('center_axis',(0.,0.,1.));
#264=DIRECTION('ref_axis',(1.,0.,0.));
#265=DIRECTION('',(0.,1.,0.));
#266=DIRECTION('center_axis',(1.,0.,0.));
#267=DIRECTION('ref_axis',(0.,1.,0.));
#268=DIRECTION('',(0.,1.,0.));
#269=DIRECTION('',(0.,0.,1.));
#270=DIRECTION('center_axis',(-1.,0.,0.));
#271=DIRECTION('ref_axis',(0.,0.,-1.));
#272=DIRECTION('center_axis',(-1.,0.,0.));
#273=DIRECTION('ref_axis',(0.,0.,-1.));
#274=DIRECTION('',(-1.,0.,0.));
#275=DIRECTION('center_axis',(0.,1.,0.));
#276=DIRECTION('ref_axis',(0.,0.,-1.));
#277=DIRECTION('',(1.,0.,0.));
#278=DIRECTION('center_axis',(0.,0.,1.));
#279=DIRECTION('ref_axis',(1.,0.,0.));
#280=DIRECTION('center_axis',(0.,0.,-1.));
#281=DIRECTION('ref_axis',(1.,0.,0.));
#282=DIRECTION('center_axis',(0.,0.,1.));
#283=DIRECTION('ref_axis',(1.,0.,0.));
#284=DIRECTION('center_axis',(0.,0.,1.));
#285=DIRECTION('ref_axis',(1.,0.,0.));
#286=DIRECTION('',(0.,0.,-1.));
#287=DIRECTION('center_axis',(0.,0.,1.));
#288=DIRECTION('ref_axis',(1.,0.,0.));
#289=CARTESIAN_POINT('',(0.,0.,0.));
#290=CARTESIAN_POINT('Origin',(12.5,0.2,6.));
#291=CARTESIAN_POINT('',(0.,0.2,8.4));
#292=CARTESIAN_POINT('',(25.,0.2,8.4));
#293=CARTESIAN_POINT('',(25.,0.2,8.4));
#294=CARTESIAN_POINT('',(0.,0.2,0.));
#295=CARTESIAN_POINT('',(0.,0.199999999999996,3.));
#296=CARTESIAN_POINT('',(25.,0.2,0.));
#297=CARTESIAN_POINT('',(12.5,0.2,0.));
#298=CARTESIAN_POINT('',(25.,0.2,3.));
#299=CARTESIAN_POINT('Origin',(0.,70.,0.));
#300=CARTESIAN_POINT('',(0.,10.,7.));
#301=CARTESIAN_POINT('Origin',(0.,5.,7.));
#302=CARTESIAN_POINT('',(0.,10.,4.));
#303=CARTESIAN_POINT('',(0.,10.,4.));
#304=CARTESIAN_POINT('',(0.,69.5,4.));
#305=CARTESIAN_POINT('',(0.,70.,4.));
#306=CARTESIAN_POINT('',(0.,69.5,0.));
#307=CARTESIAN_POINT('',(0.,69.5,1.));
#308=CARTESIAN_POINT('',(0.,70.,0.));
#309=CARTESIAN_POINT('',(0.,5.,10.));
#310=CARTESIAN_POINT('Origin',(0.,5.,8.));
#311=CARTESIAN_POINT('Origin',(25.,5.,7.));
#312=CARTESIAN_POINT('',(25.,10.,7.));
#313=CARTESIAN_POINT('Origin',(25.,5.,7.));
#314=CARTESIAN_POINT('',(25.,10.,7.));
#315=CARTESIAN_POINT('Origin',(12.5,69.5,2.));
#316=CARTESIAN_POINT('',(25.,69.5,0.));
#317=CARTESIAN_POINT('',(12.5,69.5,0.));
#318=CARTESIAN_POINT('',(25.,69.5,4.));
#319=CARTESIAN_POINT('',(12.5,69.5,4.));
#320=CARTESIAN_POINT('',(25.,69.5,1.));
#321=CARTESIAN_POINT('Origin',(12.5,35.,0.));
#322=CARTESIAN_POINT('',(25.,0.,0.));
#323=CARTESIAN_POINT('Origin',(25.,0.,0.));
#324=CARTESIAN_POINT('',(25.,10.,4.));
#325=CARTESIAN_POINT('',(25.,0.,4.));
#326=CARTESIAN_POINT('',(25.,10.,4.));
#327=CARTESIAN_POINT('',(25.,5.,10.));
#328=CARTESIAN_POINT('Origin',(25.,5.,8.));
#329=CARTESIAN_POINT('Origin',(25.,5.,8.));
#330=CARTESIAN_POINT('',(25.,5.,10.));
#331=CARTESIAN_POINT('Origin',(25.,10.,12.));
#332=CARTESIAN_POINT('',(18.75,10.,4.));
#333=CARTESIAN_POINT('Origin',(12.5,35.,4.));
#334=CARTESIAN_POINT('',(10.9,60.,4.));
#335=CARTESIAN_POINT('Origin',(12.5,60.,4.));
#336=CARTESIAN_POINT('Origin',(12.5,60.,4.));
#337=CARTESIAN_POINT('',(10.9,60.,9.));
#338=CARTESIAN_POINT('Origin',(12.5,60.,9.));
#339=CARTESIAN_POINT('',(10.9,60.,4.));
#340=CARTESIAN_POINT('Origin',(12.5,60.,9.));
#341=UNCERTAINTY_MEASURE_WITH_UNIT(LENGTH_MEASURE(0.01),#345,
'DISTANCE_ACCURACY_VALUE',
'Maximum model space distance between geometric entities at asserted c
onnectivities');
#342=UNCERTAINTY_MEASURE_WITH_UNIT(LENGTH_MEASURE(0.01),#345,
'DISTANCE_ACCURACY_VALUE',
'Maximum model space distance between geometric entities at asserted c
onnectivities');
#343=(
GEOMETRIC_REPRESENTATION_CONTEXT(3)
GLOBAL_UNCERTAINTY_ASSIGNED_CONTEXT((#341))
GLOBAL_UNIT_ASSIGNED_CONTEXT((#345,#347,#348))
REPRESENTATION_CONTEXT('','3D')
);
#344=(
GEOMETRIC_REPRESENTATION_CONTEXT(3)
GLOBAL_UNCERTAINTY_ASSIGNED_CONTEXT((#342))
GLOBAL_UNIT_ASSIGNED_CONTEXT((#345,#347,#348))
REPRESENTATION_CONTEXT('','3D')
);
#345=(
LENGTH_UNIT()
NAMED_UNIT(*)
SI_UNIT(.MILLI.,.METRE.)
);
#346=(
LENGTH_UNIT()
NAMED_UNIT(*)
SI_UNIT(.CENTI.,.METRE.)
);
#347=(
NAMED_UNIT(*)
PLANE_ANGLE_UNIT()
SI_UNIT($,.RADIAN.)
);
#348=(
NAMED_UNIT(*)
SI_UNIT($,.STERADIAN.)
SOLID_ANGLE_UNIT()
);
#349=SHAPE_DEFINITION_REPRESENTATION(#350,#351);
#350=PRODUCT_DEFINITION_SHAPE('',$,#353);
#351=SHAPE_REPRESENTATION('',(#217),#343);
#352=PRODUCT_DEFINITION_CONTEXT('part definition',#357,'design');
#353=PRODUCT_DEFINITION('note','note',#354,#352);
#354=PRODUCT_DEFINITION_FORMATION('',$,#359);
#355=PRODUCT_RELATED_PRODUCT_CATEGORY('note','note',(#359));
#356=APPLICATION_PROTOCOL_DEFINITION('international standard',
'automotive_design',2009,#357);
#357=APPLICATION_CONTEXT(
'Core Data for Automotive Mechanical Design Process');
#358=PRODUCT_CONTEXT('part definition',#357,'mechanical');
#359=PRODUCT('note','note',$,(#358));
#360=PRESENTATION_STYLE_ASSIGNMENT((#361));
#361=SURFACE_STYLE_USAGE(.BOTH.,#364);
#362=SURFACE_STYLE_RENDERING_WITH_PROPERTIES($,#368,(#363));
#363=SURFACE_STYLE_TRANSPARENT(0.);
#364=SURFACE_SIDE_STYLE('',(#365,#362));
#365=SURFACE_STYLE_FILL_AREA(#366);
#366=FILL_AREA_STYLE('',(#367));
#367=FILL_AREA_STYLE_COLOUR('',#368);
#368=COLOUR_RGB('',0.749019607843137,0.749019607843137,0.749019607843137);
ENDSEC;
END-ISO-10303-21;
