ISO-10303-21;
HEADER;
/* Generated by software containing ST-Developer
 * from STEP Tools, Inc. (www.steptools.com) 
 */

FILE_DESCRIPTION(
/* description */ (''),
/* implementation_level */ '2;1');

FILE_NAME(
/* name */ 'note_mid.stp',
/* time_stamp */ '2026-01-05T11:47:00+01:00',
/* author */ ('Wendelin'),
/* organization */ (''),
/* preprocessor_version */ 'ST-DEVELOPER v20',
/* originating_system */ 'Autodesk Inventor 2024',
/* authorisation */ '');

FILE_SCHEMA (('AUTOMOTIVE_DESIGN { 1 0 10303 214 3 1 1 }'));
ENDSEC;

DATA;
#10=MECHANICAL_DESIGN_GEOMETRIC_PRESENTATION_REPRESENTATION('',(#13),#476);
#11=SHAPE_REPRESENTATION_RELATIONSHIP('SRR','None',#483,#12);
#12=ADVANCED_BREP_SHAPE_REPRESENTATION('',(#14),#475);
#13=STYLED_ITEM('',(#492),#14);
#14=MANIFOLD_SOLID_BREP('Volumenk\X\F6rper2',#279);
#15=CYLINDRICAL_SURFACE('',#306,5.);
#16=CYLINDRICAL_SURFACE('',#318,2.);
#17=CYLINDRICAL_SURFACE('',#320,1.6);
#18=FACE_BOUND('',#44,.T.);
#19=FACE_BOUND('',#48,.T.);
#20=FACE_BOUND('',#52,.T.);
#21=CIRCLE('',#304,5.);
#22=CIRCLE('',#305,2.);
#23=CIRCLE('',#307,5.);
#24=CIRCLE('',#310,2.);
#25=CIRCLE('',#314,1.6);
#26=CIRCLE('',#321,1.6);
#27=FACE_OUTER_BOUND('',#42,.T.);
#28=FACE_OUTER_BOUND('',#43,.T.);
#29=FACE_OUTER_BOUND('',#45,.T.);
#30=FACE_OUTER_BOUND('',#46,.T.);
#31=FACE_OUTER_BOUND('',#47,.T.);
#32=FACE_OUTER_BOUND('',#49,.T.);
#33=FACE_OUTER_BOUND('',#50,.T.);
#34=FACE_OUTER_BOUND('',#51,.T.);
#35=FACE_OUTER_BOUND('',#53,.T.);
#36=FACE_OUTER_BOUND('',#54,.T.);
#37=FACE_OUTER_BOUND('',#55,.T.);
#38=FACE_OUTER_BOUND('',#56,.T.);
#39=FACE_OUTER_BOUND('',#57,.T.);
#40=FACE_OUTER_BOUND('',#58,.T.);
#41=FACE_OUTER_BOUND('',#59,.T.);
#42=EDGE_LOOP('',(#180,#181,#182,#183));
#43=EDGE_LOOP('',(#184,#185,#186,#187,#188,#189));
#44=EDGE_LOOP('',(#190));
#45=EDGE_LOOP('',(#191,#192,#193,#194));
#46=EDGE_LOOP('',(#195,#196,#197,#198));
#47=EDGE_LOOP('',(#199,#200,#201,#202,#203,#204));
#48=EDGE_LOOP('',(#205));
#49=EDGE_LOOP('',(#206,#207,#208,#209));
#50=EDGE_LOOP('',(#210,#211,#212,#213));
#51=EDGE_LOOP('',(#214,#215,#216,#217,#218,#219,#220,#221));
#52=EDGE_LOOP('',(#222));
#53=EDGE_LOOP('',(#223,#224,#225,#226,#227,#228,#229,#230));
#54=EDGE_LOOP('',(#231,#232,#233,#234));
#55=EDGE_LOOP('',(#235,#236,#237,#238));
#56=EDGE_LOOP('',(#239,#240,#241,#242));
#57=EDGE_LOOP('',(#243,#244,#245,#246));
#58=EDGE_LOOP('',(#247,#248,#249,#250));
#59=EDGE_LOOP('',(#251));
#60=LINE('',#401,#90);
#61=LINE('',#403,#91);
#62=LINE('',#405,#92);
#63=LINE('',#406,#93);
#64=LINE('',#411,#94);
#65=LINE('',#413,#95);
#66=LINE('',#415,#96);
#67=LINE('',#416,#97);
#68=LINE('',#422,#98);
#69=LINE('',#426,#99);
#70=LINE('',#428,#100);
#71=LINE('',#430,#101);
#72=LINE('',#431,#102);
#73=LINE('',#433,#103);
#74=LINE('',#435,#104);
#75=LINE('',#436,#105);
#76=LINE('',#441,#106);
#77=LINE('',#443,#107);
#78=LINE('',#444,#108);
#79=LINE('',#447,#109);
#80=LINE('',#449,#110);
#81=LINE('',#450,#111);
#82=LINE('',#453,#112);
#83=LINE('',#454,#113);
#84=LINE('',#455,#114);
#85=LINE('',#460,#115);
#86=LINE('',#461,#116);
#87=LINE('',#463,#117);
#88=LINE('',#466,#118);
#89=LINE('',#471,#119);
#90=VECTOR('',#327,10.);
#91=VECTOR('',#328,10.);
#92=VECTOR('',#329,10.);
#93=VECTOR('',#330,10.);
#94=VECTOR('',#335,10.);
#95=VECTOR('',#336,10.);
#96=VECTOR('',#337,10.);
#97=VECTOR('',#338,10.);
#98=VECTOR('',#345,10.);
#99=VECTOR('',#348,10.);
#100=VECTOR('',#349,10.);
#101=VECTOR('',#350,10.);
#102=VECTOR('',#351,10.);
#103=VECTOR('',#354,10.);
#104=VECTOR('',#355,10.);
#105=VECTOR('',#356,10.);
#106=VECTOR('',#361,10.);
#107=VECTOR('',#362,10.);
#108=VECTOR('',#363,10.);
#109=VECTOR('',#366,10.);
#110=VECTOR('',#367,10.);
#111=VECTOR('',#368,10.);
#112=VECTOR('',#371,10.);
#113=VECTOR('',#372,10.);
#114=VECTOR('',#373,10.);
#115=VECTOR('',#378,10.);
#116=VECTOR('',#379,10.);
#117=VECTOR('',#382,10.);
#118=VECTOR('',#387,2.);
#119=VECTOR('',#394,1.6);
#120=VERTEX_POINT('',#399);
#121=VERTEX_POINT('',#400);
#122=VERTEX_POINT('',#402);
#123=VERTEX_POINT('',#404);
#124=VERTEX_POINT('',#408);
#125=VERTEX_POINT('',#410);
#126=VERTEX_POINT('',#412);
#127=VERTEX_POINT('',#414);
#128=VERTEX_POINT('',#417);
#129=VERTEX_POINT('',#420);
#130=VERTEX_POINT('',#424);
#131=VERTEX_POINT('',#425);
#132=VERTEX_POINT('',#427);
#133=VERTEX_POINT('',#429);
#134=VERTEX_POINT('',#434);
#135=VERTEX_POINT('',#437);
#136=VERTEX_POINT('',#440);
#137=VERTEX_POINT('',#442);
#138=VERTEX_POINT('',#446);
#139=VERTEX_POINT('',#448);
#140=VERTEX_POINT('',#452);
#141=VERTEX_POINT('',#456);
#142=VERTEX_POINT('',#459);
#143=VERTEX_POINT('',#469);
#144=EDGE_CURVE('',#120,#121,#60,.T.);
#145=EDGE_CURVE('',#122,#120,#61,.T.);
#146=EDGE_CURVE('',#123,#122,#62,.T.);
#147=EDGE_CURVE('',#121,#123,#63,.T.);
#148=EDGE_CURVE('',#124,#121,#21,.T.);
#149=EDGE_CURVE('',#125,#124,#64,.T.);
#150=EDGE_CURVE('',#126,#125,#65,.T.);
#151=EDGE_CURVE('',#127,#126,#66,.T.);
#152=EDGE_CURVE('',#120,#127,#67,.T.);
#153=EDGE_CURVE('',#128,#128,#22,.T.);
#154=EDGE_CURVE('',#123,#129,#23,.T.);
#155=EDGE_CURVE('',#129,#124,#68,.T.);
#156=EDGE_CURVE('',#130,#131,#69,.T.);
#157=EDGE_CURVE('',#132,#130,#70,.T.);
#158=EDGE_CURVE('',#133,#132,#71,.T.);
#159=EDGE_CURVE('',#131,#133,#72,.T.);
#160=EDGE_CURVE('',#132,#122,#73,.T.);
#161=EDGE_CURVE('',#134,#130,#74,.T.);
#162=EDGE_CURVE('',#129,#134,#75,.T.);
#163=EDGE_CURVE('',#135,#135,#24,.T.);
#164=EDGE_CURVE('',#136,#126,#76,.T.);
#165=EDGE_CURVE('',#137,#136,#77,.T.);
#166=EDGE_CURVE('',#127,#137,#78,.T.);
#167=EDGE_CURVE('',#133,#138,#79,.T.);
#168=EDGE_CURVE('',#138,#139,#80,.T.);
#169=EDGE_CURVE('',#131,#139,#81,.T.);
#170=EDGE_CURVE('',#139,#140,#82,.T.);
#171=EDGE_CURVE('',#140,#136,#83,.T.);
#172=EDGE_CURVE('',#125,#134,#84,.T.);
#173=EDGE_CURVE('',#141,#141,#25,.T.);
#174=EDGE_CURVE('',#142,#137,#85,.T.);
#175=EDGE_CURVE('',#142,#138,#86,.T.);
#176=EDGE_CURVE('',#140,#142,#87,.T.);
#177=EDGE_CURVE('',#135,#128,#88,.T.);
#178=EDGE_CURVE('',#143,#143,#26,.T.);
#179=EDGE_CURVE('',#143,#141,#89,.T.);
#180=ORIENTED_EDGE('',*,*,#144,.F.);
#181=ORIENTED_EDGE('',*,*,#145,.F.);
#182=ORIENTED_EDGE('',*,*,#146,.F.);
#183=ORIENTED_EDGE('',*,*,#147,.F.);
#184=ORIENTED_EDGE('',*,*,#144,.T.);
#185=ORIENTED_EDGE('',*,*,#148,.F.);
#186=ORIENTED_EDGE('',*,*,#149,.F.);
#187=ORIENTED_EDGE('',*,*,#150,.F.);
#188=ORIENTED_EDGE('',*,*,#151,.F.);
#189=ORIENTED_EDGE('',*,*,#152,.F.);
#190=ORIENTED_EDGE('',*,*,#153,.F.);
#191=ORIENTED_EDGE('',*,*,#147,.T.);
#192=ORIENTED_EDGE('',*,*,#154,.T.);
#193=ORIENTED_EDGE('',*,*,#155,.T.);
#194=ORIENTED_EDGE('',*,*,#148,.T.);
#195=ORIENTED_EDGE('',*,*,#156,.F.);
#196=ORIENTED_EDGE('',*,*,#157,.F.);
#197=ORIENTED_EDGE('',*,*,#158,.F.);
#198=ORIENTED_EDGE('',*,*,#159,.F.);
#199=ORIENTED_EDGE('',*,*,#146,.T.);
#200=ORIENTED_EDGE('',*,*,#160,.F.);
#201=ORIENTED_EDGE('',*,*,#157,.T.);
#202=ORIENTED_EDGE('',*,*,#161,.F.);
#203=ORIENTED_EDGE('',*,*,#162,.F.);
#204=ORIENTED_EDGE('',*,*,#154,.F.);
#205=ORIENTED_EDGE('',*,*,#163,.F.);
#206=ORIENTED_EDGE('',*,*,#164,.F.);
#207=ORIENTED_EDGE('',*,*,#165,.F.);
#208=ORIENTED_EDGE('',*,*,#166,.F.);
#209=ORIENTED_EDGE('',*,*,#151,.T.);
#210=ORIENTED_EDGE('',*,*,#159,.T.);
#211=ORIENTED_EDGE('',*,*,#167,.T.);
#212=ORIENTED_EDGE('',*,*,#168,.T.);
#213=ORIENTED_EDGE('',*,*,#169,.F.);
#214=ORIENTED_EDGE('',*,*,#161,.T.);
#215=ORIENTED_EDGE('',*,*,#156,.T.);
#216=ORIENTED_EDGE('',*,*,#169,.T.);
#217=ORIENTED_EDGE('',*,*,#170,.T.);
#218=ORIENTED_EDGE('',*,*,#171,.T.);
#219=ORIENTED_EDGE('',*,*,#164,.T.);
#220=ORIENTED_EDGE('',*,*,#150,.T.);
#221=ORIENTED_EDGE('',*,*,#172,.T.);
#222=ORIENTED_EDGE('',*,*,#173,.T.);
#223=ORIENTED_EDGE('',*,*,#145,.T.);
#224=ORIENTED_EDGE('',*,*,#152,.T.);
#225=ORIENTED_EDGE('',*,*,#166,.T.);
#226=ORIENTED_EDGE('',*,*,#174,.F.);
#227=ORIENTED_EDGE('',*,*,#175,.T.);
#228=ORIENTED_EDGE('',*,*,#167,.F.);
#229=ORIENTED_EDGE('',*,*,#158,.T.);
#230=ORIENTED_EDGE('',*,*,#160,.T.);
#231=ORIENTED_EDGE('',*,*,#175,.F.);
#232=ORIENTED_EDGE('',*,*,#176,.F.);
#233=ORIENTED_EDGE('',*,*,#170,.F.);
#234=ORIENTED_EDGE('',*,*,#168,.F.);
#235=ORIENTED_EDGE('',*,*,#165,.T.);
#236=ORIENTED_EDGE('',*,*,#171,.F.);
#237=ORIENTED_EDGE('',*,*,#176,.T.);
#238=ORIENTED_EDGE('',*,*,#174,.T.);
#239=ORIENTED_EDGE('',*,*,#163,.T.);
#240=ORIENTED_EDGE('',*,*,#177,.T.);
#241=ORIENTED_EDGE('',*,*,#153,.T.);
#242=ORIENTED_EDGE('',*,*,#177,.F.);
#243=ORIENTED_EDGE('',*,*,#162,.T.);
#244=ORIENTED_EDGE('',*,*,#172,.F.);
#245=ORIENTED_EDGE('',*,*,#149,.T.);
#246=ORIENTED_EDGE('',*,*,#155,.F.);
#247=ORIENTED_EDGE('',*,*,#178,.F.);
#248=ORIENTED_EDGE('',*,*,#179,.T.);
#249=ORIENTED_EDGE('',*,*,#173,.F.);
#250=ORIENTED_EDGE('',*,*,#179,.F.);
#251=ORIENTED_EDGE('',*,*,#178,.T.);
#252=PLANE('',#302);
#253=PLANE('',#303);
#254=PLANE('',#308);
#255=PLANE('',#309);
#256=PLANE('',#311);
#257=PLANE('',#312);
#258=PLANE('',#313);
#259=PLANE('',#315);
#260=PLANE('',#316);
#261=PLANE('',#317);
#262=PLANE('',#319);
#263=PLANE('',#322);
#264=ADVANCED_FACE('',(#27),#252,.F.);
#265=ADVANCED_FACE('',(#28,#18),#253,.F.);
#266=ADVANCED_FACE('',(#29),#15,.T.);
#267=ADVANCED_FACE('',(#30),#254,.F.);
#268=ADVANCED_FACE('',(#31,#19),#255,.F.);
#269=ADVANCED_FACE('',(#32),#256,.F.);
#270=ADVANCED_FACE('',(#33),#257,.T.);
#271=ADVANCED_FACE('',(#34,#20),#258,.T.);
#272=ADVANCED_FACE('',(#35),#259,.F.);
#273=ADVANCED_FACE('',(#36),#260,.F.);
#274=ADVANCED_FACE('',(#37),#261,.T.);
#275=ADVANCED_FACE('',(#38),#16,.F.);
#276=ADVANCED_FACE('',(#39),#262,.T.);
#277=ADVANCED_FACE('',(#40),#17,.T.);
#278=ADVANCED_FACE('',(#41),#263,.T.);
#279=CLOSED_SHELL('',(#264,#265,#266,#267,#268,#269,#270,#271,#272,#273,
#274,#275,#276,#277,#278));
#280=DERIVED_UNIT_ELEMENT(#283,1.);
#281=DERIVED_UNIT_ELEMENT(#478,-3.);
#282=DIMENSIONAL_EXPONENTS(0.,1.,0.,0.,0.,0.,0.);
#283=(
CONVERSION_BASED_UNIT('gram',#285)
MASS_UNIT()
NAMED_UNIT(#282)
);
#284=(
MASS_UNIT()
NAMED_UNIT(*)
SI_UNIT(.KILO.,.GRAM.)
);
#285=MASS_MEASURE_WITH_UNIT(MASS_MEASURE(0.001),#284);
#286=DERIVED_UNIT((#280,#281));
#287=MEASURE_REPRESENTATION_ITEM('density measure',
POSITIVE_RATIO_MEASURE(1.),#286);
#288=PROPERTY_DEFINITION_REPRESENTATION(#293,#290);
#289=PROPERTY_DEFINITION_REPRESENTATION(#294,#291);
#290=REPRESENTATION('material name',(#292),#475);
#291=REPRESENTATION('density',(#287),#475);
#292=DESCRIPTIVE_REPRESENTATION_ITEM('Generisch','Generisch');
#293=PROPERTY_DEFINITION('material property','material name',#485);
#294=PROPERTY_DEFINITION('material property','density of part',#485);
#295=DATE_TIME_ROLE('creation_date');
#296=APPLIED_DATE_AND_TIME_ASSIGNMENT(#297,#295,(#485));
#297=DATE_AND_TIME(#298,#299);
#298=CALENDAR_DATE(2026,4,1);
#299=LOCAL_TIME(0,0,0.,#300);
#300=COORDINATED_UNIVERSAL_TIME_OFFSET(0,0,.BEHIND.);
#301=AXIS2_PLACEMENT_3D('',#397,#323,#324);
#302=AXIS2_PLACEMENT_3D('',#398,#325,#326);
#303=AXIS2_PLACEMENT_3D('',#407,#331,#332);
#304=AXIS2_PLACEMENT_3D('',#409,#333,#334);
#305=AXIS2_PLACEMENT_3D('',#418,#339,#340);
#306=AXIS2_PLACEMENT_3D('',#419,#341,#342);
#307=AXIS2_PLACEMENT_3D('',#421,#343,#344);
#308=AXIS2_PLACEMENT_3D('',#423,#346,#347);
#309=AXIS2_PLACEMENT_3D('',#432,#352,#353);
#310=AXIS2_PLACEMENT_3D('',#438,#357,#358);
#311=AXIS2_PLACEMENT_3D('',#439,#359,#360);
#312=AXIS2_PLACEMENT_3D('',#445,#364,#365);
#313=AXIS2_PLACEMENT_3D('',#451,#369,#370);
#314=AXIS2_PLACEMENT_3D('',#457,#374,#375);
#315=AXIS2_PLACEMENT_3D('',#458,#376,#377);
#316=AXIS2_PLACEMENT_3D('',#462,#380,#381);
#317=AXIS2_PLACEMENT_3D('',#464,#383,#384);
#318=AXIS2_PLACEMENT_3D('',#465,#385,#386);
#319=AXIS2_PLACEMENT_3D('',#467,#388,#389);
#320=AXIS2_PLACEMENT_3D('',#468,#390,#391);
#321=AXIS2_PLACEMENT_3D('',#470,#392,#393);
#322=AXIS2_PLACEMENT_3D('',#472,#395,#396);
#323=DIRECTION('axis',(0.,0.,1.));
#324=DIRECTION('refdir',(1.,0.,0.));
#325=DIRECTION('center_axis',(0.,1.,0.));
#326=DIRECTION('ref_axis',(0.,0.,1.));
#327=DIRECTION('',(0.,0.,1.));
#328=DIRECTION('',(-1.,0.,0.));
#329=DIRECTION('',(0.,0.,-1.));
#330=DIRECTION('',(1.,0.,0.));
#331=DIRECTION('center_axis',(1.,4.3969228698026E-17,0.));
#332=DIRECTION('ref_axis',(-4.3969228698026E-17,1.,0.));
#333=DIRECTION('center_axis',(1.,4.3969228698026E-17,0.));
#334=DIRECTION('ref_axis',(0.,0.707106781186547,0.707106781186547));
#335=DIRECTION('',(0.,0.,1.));
#336=DIRECTION('',(4.3969228698026E-17,-1.,0.));
#337=DIRECTION('',(0.,0.,1.));
#338=DIRECTION('',(-4.3969228698026E-17,1.,0.));
#339=DIRECTION('center_axis',(-1.,-4.3969228698026E-17,0.));
#340=DIRECTION('ref_axis',(0.,0.,-1.));
#341=DIRECTION('center_axis',(-1.,0.,0.));
#342=DIRECTION('ref_axis',(0.,0.707106781186547,0.707106781186547));
#343=DIRECTION('center_axis',(-1.,2.1984614349013E-16,0.));
#344=DIRECTION('ref_axis',(0.,0.707106781186547,0.707106781186547));
#345=DIRECTION('',(-1.,0.,0.));
#346=DIRECTION('center_axis',(0.,1.,0.));
#347=DIRECTION('ref_axis',(-1.,0.,0.));
#348=DIRECTION('',(1.,0.,0.));
#349=DIRECTION('',(0.,0.,1.));
#350=DIRECTION('',(-1.,0.,0.));
#351=DIRECTION('',(0.,0.,-1.));
#352=DIRECTION('center_axis',(-1.,2.1984614349013E-16,0.));
#353=DIRECTION('ref_axis',(-2.1984614349013E-16,-1.,0.));
#354=DIRECTION('',(-2.1984614349013E-16,-1.,0.));
#355=DIRECTION('',(2.1984614349013E-16,1.,0.));
#356=DIRECTION('',(0.,0.,-1.));
#357=DIRECTION('center_axis',(1.,-2.1984614349013E-16,0.));
#358=DIRECTION('ref_axis',(0.,0.,-1.));
#359=DIRECTION('center_axis',(0.,1.,0.));
#360=DIRECTION('ref_axis',(-1.,0.,0.));
#361=DIRECTION('',(1.,0.,0.));
#362=DIRECTION('',(0.,0.,1.));
#363=DIRECTION('',(-1.,0.,0.));
#364=DIRECTION('center_axis',(1.,0.,0.));
#365=DIRECTION('ref_axis',(0.,1.,0.));
#366=DIRECTION('',(0.,1.,0.));
#367=DIRECTION('',(0.,0.,1.));
#368=DIRECTION('',(0.,1.,0.));
#369=DIRECTION('center_axis',(0.,0.,1.));
#370=DIRECTION('ref_axis',(1.,0.,0.));
#371=DIRECTION('',(-1.,0.,0.));
#372=DIRECTION('',(0.,-1.,0.));
#373=DIRECTION('',(1.,0.,0.));
#374=DIRECTION('center_axis',(0.,0.,-1.));
#375=DIRECTION('ref_axis',(1.,0.,0.));
#376=DIRECTION('center_axis',(0.,0.,1.));
#377=DIRECTION('ref_axis',(1.,0.,0.));
#378=DIRECTION('',(0.,-1.,0.));
#379=DIRECTION('',(1.,0.,0.));
#380=DIRECTION('center_axis',(0.,-1.,0.));
#381=DIRECTION('ref_axis',(0.,0.,-1.));
#382=DIRECTION('',(0.,0.,-1.));
#383=DIRECTION('center_axis',(-1.,0.,0.));
#384=DIRECTION('ref_axis',(0.,-1.,0.));
#385=DIRECTION('center_axis',(-1.,0.,0.));
#386=DIRECTION('ref_axis',(0.,0.,-1.));
#387=DIRECTION('',(-1.,0.,0.));
#388=DIRECTION('center_axis',(0.,1.,0.));
#389=DIRECTION('ref_axis',(0.,0.,-1.));
#390=DIRECTION('center_axis',(0.,0.,1.));
#391=DIRECTION('ref_axis',(1.,0.,0.));
#392=DIRECTION('center_axis',(0.,0.,1.));
#393=DIRECTION('ref_axis',(1.,0.,0.));
#394=DIRECTION('',(0.,0.,-1.));
#395=DIRECTION('center_axis',(0.,0.,1.));
#396=DIRECTION('ref_axis',(1.,0.,0.));
#397=CARTESIAN_POINT('',(0.,0.,0.));
#398=CARTESIAN_POINT('Origin',(12.479261670692,0.2,6.));
#399=CARTESIAN_POINT('',(5.25000000000001,0.2,0.));
#400=CARTESIAN_POINT('',(5.25000000000001,0.2,8.4));
#401=CARTESIAN_POINT('',(5.25000000000001,0.2,3.));
#402=CARTESIAN_POINT('',(19.75,0.2,0.));
#403=CARTESIAN_POINT('',(12.489630835346,0.2,0.));
#404=CARTESIAN_POINT('',(19.75,0.2,8.4));
#405=CARTESIAN_POINT('',(19.75,0.199999999999996,3.));
#406=CARTESIAN_POINT('',(25.,0.2,8.4));
#407=CARTESIAN_POINT('Origin',(5.25000000000001,0.,0.));
#408=CARTESIAN_POINT('',(5.25000000000001,10.,7.));
#409=CARTESIAN_POINT('Origin',(5.25000000000001,5.,7.));
#410=CARTESIAN_POINT('',(5.25000000000001,10.,4.));
#411=CARTESIAN_POINT('',(5.25000000000001,10.,6.));
#412=CARTESIAN_POINT('',(5.25000000000001,50.5,4.));
#413=CARTESIAN_POINT('',(5.25000000000001,17.5,4.));
#414=CARTESIAN_POINT('',(5.25000000000001,50.5,0.));
#415=CARTESIAN_POINT('',(5.25000000000001,50.5,0.));
#416=CARTESIAN_POINT('',(5.25000000000001,17.5,0.));
#417=CARTESIAN_POINT('',(5.25000000000001,5.,10.));
#418=CARTESIAN_POINT('Origin',(5.25000000000001,5.,8.));
#419=CARTESIAN_POINT('Origin',(25.,5.,7.));
#420=CARTESIAN_POINT('',(19.75,10.,7.));
#421=CARTESIAN_POINT('Origin',(19.75,5.,7.));
#422=CARTESIAN_POINT('',(25.,10.,7.));
#423=CARTESIAN_POINT('Origin',(25.,50.5,0.));
#424=CARTESIAN_POINT('',(19.75,50.5,4.));
#425=CARTESIAN_POINT('',(25.,50.5,4.));
#426=CARTESIAN_POINT('',(18.75,50.5,4.));
#427=CARTESIAN_POINT('',(19.75,50.5,0.));
#428=CARTESIAN_POINT('',(19.75,50.5,0.));
#429=CARTESIAN_POINT('',(25.,50.5,0.));
#430=CARTESIAN_POINT('',(18.75,50.5,0.));
#431=CARTESIAN_POINT('',(25.,50.5,0.));
#432=CARTESIAN_POINT('Origin',(19.75,50.5,0.));
#433=CARTESIAN_POINT('',(19.75,42.75,0.));
#434=CARTESIAN_POINT('',(19.75,10.,4.));
#435=CARTESIAN_POINT('',(19.75,42.75,4.));
#436=CARTESIAN_POINT('',(19.75,10.,6.));
#437=CARTESIAN_POINT('',(19.75,5.,10.));
#438=CARTESIAN_POINT('Origin',(19.75,5.,8.));
#439=CARTESIAN_POINT('Origin',(5.25000000000001,50.5,0.));
#440=CARTESIAN_POINT('',(0.,50.5,4.));
#441=CARTESIAN_POINT('',(8.875,50.5,4.));
#442=CARTESIAN_POINT('',(0.,50.5,0.));
#443=CARTESIAN_POINT('',(0.,50.5,0.));
#444=CARTESIAN_POINT('',(8.875,50.5,0.));
#445=CARTESIAN_POINT('Origin',(25.,0.,0.));
#446=CARTESIAN_POINT('',(25.,69.5,0.));
#447=CARTESIAN_POINT('',(25.,0.,0.));
#448=CARTESIAN_POINT('',(25.,69.5,4.));
#449=CARTESIAN_POINT('',(25.,69.5,1.));
#450=CARTESIAN_POINT('',(25.,0.,4.));
#451=CARTESIAN_POINT('Origin',(12.5,35.,4.));
#452=CARTESIAN_POINT('',(0.,69.5,4.));
#453=CARTESIAN_POINT('',(12.5,69.5,4.));
#454=CARTESIAN_POINT('',(0.,70.,4.));
#455=CARTESIAN_POINT('',(18.75,10.,4.));
#456=CARTESIAN_POINT('',(10.9,60.,4.));
#457=CARTESIAN_POINT('Origin',(12.5,60.,4.));
#458=CARTESIAN_POINT('Origin',(12.5,35.,0.));
#459=CARTESIAN_POINT('',(0.,69.5,0.));
#460=CARTESIAN_POINT('',(0.,70.,0.));
#461=CARTESIAN_POINT('',(12.5,69.5,0.));
#462=CARTESIAN_POINT('Origin',(12.5,69.5,2.));
#463=CARTESIAN_POINT('',(0.,69.5,1.));
#464=CARTESIAN_POINT('Origin',(0.,70.,0.));
#465=CARTESIAN_POINT('Origin',(25.,5.,8.));
#466=CARTESIAN_POINT('',(25.,5.,10.));
#467=CARTESIAN_POINT('Origin',(25.,10.,12.));
#468=CARTESIAN_POINT('Origin',(12.5,60.,4.));
#469=CARTESIAN_POINT('',(10.9,60.,9.));
#470=CARTESIAN_POINT('Origin',(12.5,60.,9.));
#471=CARTESIAN_POINT('',(10.9,60.,4.));
#472=CARTESIAN_POINT('Origin',(12.5,60.,9.));
#473=UNCERTAINTY_MEASURE_WITH_UNIT(LENGTH_MEASURE(0.01),#477,
'DISTANCE_ACCURACY_VALUE',
'Maximum model space distance between geometric entities at asserted c
onnectivities');
#474=UNCERTAINTY_MEASURE_WITH_UNIT(LENGTH_MEASURE(0.01),#477,
'DISTANCE_ACCURACY_VALUE',
'Maximum model space distance between geometric entities at asserted c
onnectivities');
#475=(
GEOMETRIC_REPRESENTATION_CONTEXT(3)
GLOBAL_UNCERTAINTY_ASSIGNED_CONTEXT((#473))
GLOBAL_UNIT_ASSIGNED_CONTEXT((#477,#479,#480))
REPRESENTATION_CONTEXT('','3D')
);
#476=(
GEOMETRIC_REPRESENTATION_CONTEXT(3)
GLOBAL_UNCERTAINTY_ASSIGNED_CONTEXT((#474))
GLOBAL_UNIT_ASSIGNED_CONTEXT((#477,#479,#480))
REPRESENTATION_CONTEXT('','3D')
);
#477=(
LENGTH_UNIT()
NAMED_UNIT(*)
SI_UNIT(.MILLI.,.METRE.)
);
#478=(
LENGTH_UNIT()
NAMED_UNIT(*)
SI_UNIT(.CENTI.,.METRE.)
);
#479=(
NAMED_UNIT(*)
PLANE_ANGLE_UNIT()
SI_UNIT($,.RADIAN.)
);
#480=(
NAMED_UNIT(*)
SI_UNIT($,.STERADIAN.)
SOLID_ANGLE_UNIT()
);
#481=SHAPE_DEFINITION_REPRESENTATION(#482,#483);
#482=PRODUCT_DEFINITION_SHAPE('',$,#485);
#483=SHAPE_REPRESENTATION('',(#301),#475);
#484=PRODUCT_DEFINITION_CONTEXT('part definition',#489,'design');
#485=PRODUCT_DEFINITION('note_mid','note_mid',#486,#484);
#486=PRODUCT_DEFINITION_FORMATION('',$,#491);
#487=PRODUCT_RELATED_PRODUCT_CATEGORY('note_mid','note_mid',(#491));
#488=APPLICATION_PROTOCOL_DEFINITION('international standard',
'automotive_design',2009,#489);
#489=APPLICATION_CONTEXT(
'Core Data for Automotive Mechanical Design Process');
#490=PRODUCT_CONTEXT('part definition',#489,'mechanical');
#491=PRODUCT('note_mid','note_mid',$,(#490));
#492=PRESENTATION_STYLE_ASSIGNMENT((#493));
#493=SURFACE_STYLE_USAGE(.BOTH.,#496);
#494=SURFACE_STYLE_RENDERING_WITH_PROPERTIES($,#500,(#495));
#495=SURFACE_STYLE_TRANSPARENT(0.);
#496=SURFACE_SIDE_STYLE('',(#497,#494));
#497=SURFACE_STYLE_FILL_AREA(#498);
#498=FILL_AREA_STYLE('',(#499));
#499=FILL_AREA_STYLE_COLOUR('',#500);
#500=COLOUR_RGB('',0.749019607843137,0.749019607843137,0.749019607843137);
ENDSEC;
END-ISO-10303-21;
