ISO-10303-21;
HEADER;
/* Generated by software containing ST-Developer
 * from STEP Tools, Inc. (www.steptools.com) 
 */

FILE_DESCRIPTION(
/* description */ (''),
/* implementation_level */ '2;1');

FILE_NAME(
/* name */ 'test_taster.stp',
/* time_stamp */ '2026-01-05T14:12:47+01:00',
/* author */ ('Wendelin'),
/* organization */ (''),
/* preprocessor_version */ 'ST-DEVELOPER v20',
/* originating_system */ 'Autodesk Inventor 2024',
/* authorisation */ '');

FILE_SCHEMA (('AUTOMOTIVE_DESIGN { 1 0 10303 214 3 1 1 }'));
ENDSEC;

DATA;
#10=MECHANICAL_DESIGN_GEOMETRIC_PRESENTATION_REPRESENTATION('',(#13),#480);
#11=SHAPE_REPRESENTATION_RELATIONSHIP('SRR','None',#487,#12);
#12=ADVANCED_BREP_SHAPE_REPRESENTATION('',(#14),#479);
#13=STYLED_ITEM('',(#496),#14);
#14=MANIFOLD_SOLID_BREP('Volumenk\X\F6rper2',#283);
#15=FACE_BOUND('',#60,.T.);
#16=FACE_BOUND('',#61,.T.);
#17=FACE_BOUND('',#62,.T.);
#18=FACE_BOUND('',#63,.T.);
#19=FACE_BOUND('',#65,.T.);
#20=FACE_BOUND('',#66,.T.);
#21=FACE_BOUND('',#67,.T.);
#22=FACE_BOUND('',#68,.T.);
#23=PLANE('',#318);
#24=PLANE('',#319);
#25=PLANE('',#320);
#26=PLANE('',#321);
#27=PLANE('',#322);
#28=PLANE('',#323);
#29=PLANE('',#324);
#30=PLANE('',#325);
#31=PLANE('',#326);
#32=PLANE('',#327);
#33=FACE_OUTER_BOUND('',#47,.T.);
#34=FACE_OUTER_BOUND('',#48,.T.);
#35=FACE_OUTER_BOUND('',#49,.T.);
#36=FACE_OUTER_BOUND('',#50,.T.);
#37=FACE_OUTER_BOUND('',#51,.T.);
#38=FACE_OUTER_BOUND('',#52,.T.);
#39=FACE_OUTER_BOUND('',#53,.T.);
#40=FACE_OUTER_BOUND('',#54,.T.);
#41=FACE_OUTER_BOUND('',#55,.T.);
#42=FACE_OUTER_BOUND('',#56,.T.);
#43=FACE_OUTER_BOUND('',#57,.T.);
#44=FACE_OUTER_BOUND('',#58,.T.);
#45=FACE_OUTER_BOUND('',#59,.T.);
#46=FACE_OUTER_BOUND('',#64,.T.);
#47=EDGE_LOOP('',(#193,#194,#195,#196));
#48=EDGE_LOOP('',(#197,#198,#199,#200));
#49=EDGE_LOOP('',(#201,#202,#203,#204));
#50=EDGE_LOOP('',(#205,#206,#207,#208));
#51=EDGE_LOOP('',(#209,#210,#211,#212));
#52=EDGE_LOOP('',(#213,#214,#215,#216));
#53=EDGE_LOOP('',(#217,#218,#219,#220));
#54=EDGE_LOOP('',(#221,#222,#223,#224));
#55=EDGE_LOOP('',(#225,#226,#227,#228));
#56=EDGE_LOOP('',(#229,#230,#231,#232));
#57=EDGE_LOOP('',(#233,#234,#235,#236));
#58=EDGE_LOOP('',(#237,#238,#239,#240));
#59=EDGE_LOOP('',(#241,#242,#243,#244,#245,#246,#247,#248));
#60=EDGE_LOOP('',(#249));
#61=EDGE_LOOP('',(#250));
#62=EDGE_LOOP('',(#251));
#63=EDGE_LOOP('',(#252));
#64=EDGE_LOOP('',(#253,#254,#255,#256,#257,#258,#259,#260));
#65=EDGE_LOOP('',(#261));
#66=EDGE_LOOP('',(#262));
#67=EDGE_LOOP('',(#263));
#68=EDGE_LOOP('',(#264));
#69=LINE('',#407,#97);
#70=LINE('',#413,#98);
#71=LINE('',#419,#99);
#72=LINE('',#425,#100);
#73=LINE('',#430,#101);
#74=LINE('',#432,#102);
#75=LINE('',#434,#103);
#76=LINE('',#435,#104);
#77=LINE('',#438,#105);
#78=LINE('',#440,#106);
#79=LINE('',#441,#107);
#80=LINE('',#444,#108);
#81=LINE('',#446,#109);
#82=LINE('',#447,#110);
#83=LINE('',#450,#111);
#84=LINE('',#452,#112);
#85=LINE('',#453,#113);
#86=LINE('',#456,#114);
#87=LINE('',#458,#115);
#88=LINE('',#459,#116);
#89=LINE('',#462,#117);
#90=LINE('',#464,#118);
#91=LINE('',#465,#119);
#92=LINE('',#468,#120);
#93=LINE('',#470,#121);
#94=LINE('',#471,#122);
#95=LINE('',#473,#123);
#96=LINE('',#474,#124);
#97=VECTOR('',#334,2.);
#98=VECTOR('',#341,2.);
#99=VECTOR('',#348,2.00000000000001);
#100=VECTOR('',#355,2.);
#101=VECTOR('',#360,10.);
#102=VECTOR('',#361,10.);
#103=VECTOR('',#362,10.);
#104=VECTOR('',#363,10.);
#105=VECTOR('',#366,10.);
#106=VECTOR('',#367,10.);
#107=VECTOR('',#368,10.);
#108=VECTOR('',#371,10.);
#109=VECTOR('',#372,10.);
#110=VECTOR('',#373,10.);
#111=VECTOR('',#376,10.);
#112=VECTOR('',#377,10.);
#113=VECTOR('',#378,10.);
#114=VECTOR('',#381,10.);
#115=VECTOR('',#382,10.);
#116=VECTOR('',#383,10.);
#117=VECTOR('',#386,10.);
#118=VECTOR('',#387,10.);
#119=VECTOR('',#388,10.);
#120=VECTOR('',#391,10.);
#121=VECTOR('',#392,10.);
#122=VECTOR('',#393,10.);
#123=VECTOR('',#396,10.);
#124=VECTOR('',#397,10.);
#125=CIRCLE('',#307,2.);
#126=CIRCLE('',#308,2.);
#127=CIRCLE('',#310,2.);
#128=CIRCLE('',#311,2.);
#129=CIRCLE('',#313,2.00000000000001);
#130=CIRCLE('',#314,2.00000000000001);
#131=CIRCLE('',#316,2.);
#132=CIRCLE('',#317,2.);
#133=VERTEX_POINT('',#404);
#134=VERTEX_POINT('',#406);
#135=VERTEX_POINT('',#410);
#136=VERTEX_POINT('',#412);
#137=VERTEX_POINT('',#416);
#138=VERTEX_POINT('',#418);
#139=VERTEX_POINT('',#422);
#140=VERTEX_POINT('',#424);
#141=VERTEX_POINT('',#428);
#142=VERTEX_POINT('',#429);
#143=VERTEX_POINT('',#431);
#144=VERTEX_POINT('',#433);
#145=VERTEX_POINT('',#437);
#146=VERTEX_POINT('',#439);
#147=VERTEX_POINT('',#443);
#148=VERTEX_POINT('',#445);
#149=VERTEX_POINT('',#449);
#150=VERTEX_POINT('',#451);
#151=VERTEX_POINT('',#455);
#152=VERTEX_POINT('',#457);
#153=VERTEX_POINT('',#461);
#154=VERTEX_POINT('',#463);
#155=VERTEX_POINT('',#467);
#156=VERTEX_POINT('',#469);
#157=EDGE_CURVE('',#133,#133,#125,.T.);
#158=EDGE_CURVE('',#133,#134,#69,.T.);
#159=EDGE_CURVE('',#134,#134,#126,.T.);
#160=EDGE_CURVE('',#135,#135,#127,.T.);
#161=EDGE_CURVE('',#135,#136,#70,.T.);
#162=EDGE_CURVE('',#136,#136,#128,.T.);
#163=EDGE_CURVE('',#137,#137,#129,.T.);
#164=EDGE_CURVE('',#137,#138,#71,.T.);
#165=EDGE_CURVE('',#138,#138,#130,.T.);
#166=EDGE_CURVE('',#139,#139,#131,.T.);
#167=EDGE_CURVE('',#139,#140,#72,.T.);
#168=EDGE_CURVE('',#140,#140,#132,.T.);
#169=EDGE_CURVE('',#141,#142,#73,.T.);
#170=EDGE_CURVE('',#142,#143,#74,.T.);
#171=EDGE_CURVE('',#144,#143,#75,.T.);
#172=EDGE_CURVE('',#141,#144,#76,.T.);
#173=EDGE_CURVE('',#145,#141,#77,.T.);
#174=EDGE_CURVE('',#146,#144,#78,.T.);
#175=EDGE_CURVE('',#145,#146,#79,.T.);
#176=EDGE_CURVE('',#147,#145,#80,.T.);
#177=EDGE_CURVE('',#148,#146,#81,.T.);
#178=EDGE_CURVE('',#147,#148,#82,.T.);
#179=EDGE_CURVE('',#149,#147,#83,.T.);
#180=EDGE_CURVE('',#150,#148,#84,.T.);
#181=EDGE_CURVE('',#149,#150,#85,.T.);
#182=EDGE_CURVE('',#151,#149,#86,.T.);
#183=EDGE_CURVE('',#152,#150,#87,.T.);
#184=EDGE_CURVE('',#151,#152,#88,.T.);
#185=EDGE_CURVE('',#153,#151,#89,.T.);
#186=EDGE_CURVE('',#154,#152,#90,.T.);
#187=EDGE_CURVE('',#153,#154,#91,.T.);
#188=EDGE_CURVE('',#155,#153,#92,.T.);
#189=EDGE_CURVE('',#156,#154,#93,.T.);
#190=EDGE_CURVE('',#155,#156,#94,.T.);
#191=EDGE_CURVE('',#142,#155,#95,.T.);
#192=EDGE_CURVE('',#143,#156,#96,.T.);
#193=ORIENTED_EDGE('',*,*,#157,.F.);
#194=ORIENTED_EDGE('',*,*,#158,.T.);
#195=ORIENTED_EDGE('',*,*,#159,.T.);
#196=ORIENTED_EDGE('',*,*,#158,.F.);
#197=ORIENTED_EDGE('',*,*,#160,.F.);
#198=ORIENTED_EDGE('',*,*,#161,.T.);
#199=ORIENTED_EDGE('',*,*,#162,.T.);
#200=ORIENTED_EDGE('',*,*,#161,.F.);
#201=ORIENTED_EDGE('',*,*,#163,.F.);
#202=ORIENTED_EDGE('',*,*,#164,.T.);
#203=ORIENTED_EDGE('',*,*,#165,.T.);
#204=ORIENTED_EDGE('',*,*,#164,.F.);
#205=ORIENTED_EDGE('',*,*,#166,.F.);
#206=ORIENTED_EDGE('',*,*,#167,.T.);
#207=ORIENTED_EDGE('',*,*,#168,.T.);
#208=ORIENTED_EDGE('',*,*,#167,.F.);
#209=ORIENTED_EDGE('',*,*,#169,.T.);
#210=ORIENTED_EDGE('',*,*,#170,.T.);
#211=ORIENTED_EDGE('',*,*,#171,.F.);
#212=ORIENTED_EDGE('',*,*,#172,.F.);
#213=ORIENTED_EDGE('',*,*,#173,.T.);
#214=ORIENTED_EDGE('',*,*,#172,.T.);
#215=ORIENTED_EDGE('',*,*,#174,.F.);
#216=ORIENTED_EDGE('',*,*,#175,.F.);
#217=ORIENTED_EDGE('',*,*,#176,.T.);
#218=ORIENTED_EDGE('',*,*,#175,.T.);
#219=ORIENTED_EDGE('',*,*,#177,.F.);
#220=ORIENTED_EDGE('',*,*,#178,.F.);
#221=ORIENTED_EDGE('',*,*,#179,.T.);
#222=ORIENTED_EDGE('',*,*,#178,.T.);
#223=ORIENTED_EDGE('',*,*,#180,.F.);
#224=ORIENTED_EDGE('',*,*,#181,.F.);
#225=ORIENTED_EDGE('',*,*,#182,.T.);
#226=ORIENTED_EDGE('',*,*,#181,.T.);
#227=ORIENTED_EDGE('',*,*,#183,.F.);
#228=ORIENTED_EDGE('',*,*,#184,.F.);
#229=ORIENTED_EDGE('',*,*,#185,.T.);
#230=ORIENTED_EDGE('',*,*,#184,.T.);
#231=ORIENTED_EDGE('',*,*,#186,.F.);
#232=ORIENTED_EDGE('',*,*,#187,.F.);
#233=ORIENTED_EDGE('',*,*,#188,.T.);
#234=ORIENTED_EDGE('',*,*,#187,.T.);
#235=ORIENTED_EDGE('',*,*,#189,.F.);
#236=ORIENTED_EDGE('',*,*,#190,.F.);
#237=ORIENTED_EDGE('',*,*,#191,.T.);
#238=ORIENTED_EDGE('',*,*,#190,.T.);
#239=ORIENTED_EDGE('',*,*,#192,.F.);
#240=ORIENTED_EDGE('',*,*,#170,.F.);
#241=ORIENTED_EDGE('',*,*,#192,.T.);
#242=ORIENTED_EDGE('',*,*,#189,.T.);
#243=ORIENTED_EDGE('',*,*,#186,.T.);
#244=ORIENTED_EDGE('',*,*,#183,.T.);
#245=ORIENTED_EDGE('',*,*,#180,.T.);
#246=ORIENTED_EDGE('',*,*,#177,.T.);
#247=ORIENTED_EDGE('',*,*,#174,.T.);
#248=ORIENTED_EDGE('',*,*,#171,.T.);
#249=ORIENTED_EDGE('',*,*,#166,.T.);
#250=ORIENTED_EDGE('',*,*,#163,.T.);
#251=ORIENTED_EDGE('',*,*,#160,.T.);
#252=ORIENTED_EDGE('',*,*,#157,.T.);
#253=ORIENTED_EDGE('',*,*,#191,.F.);
#254=ORIENTED_EDGE('',*,*,#169,.F.);
#255=ORIENTED_EDGE('',*,*,#173,.F.);
#256=ORIENTED_EDGE('',*,*,#176,.F.);
#257=ORIENTED_EDGE('',*,*,#179,.F.);
#258=ORIENTED_EDGE('',*,*,#182,.F.);
#259=ORIENTED_EDGE('',*,*,#185,.F.);
#260=ORIENTED_EDGE('',*,*,#188,.F.);
#261=ORIENTED_EDGE('',*,*,#168,.F.);
#262=ORIENTED_EDGE('',*,*,#165,.F.);
#263=ORIENTED_EDGE('',*,*,#162,.F.);
#264=ORIENTED_EDGE('',*,*,#159,.F.);
#265=CYLINDRICAL_SURFACE('',#306,2.);
#266=CYLINDRICAL_SURFACE('',#309,2.);
#267=CYLINDRICAL_SURFACE('',#312,2.00000000000001);
#268=CYLINDRICAL_SURFACE('',#315,2.);
#269=ADVANCED_FACE('',(#33),#265,.F.);
#270=ADVANCED_FACE('',(#34),#266,.F.);
#271=ADVANCED_FACE('',(#35),#267,.F.);
#272=ADVANCED_FACE('',(#36),#268,.F.);
#273=ADVANCED_FACE('',(#37),#23,.T.);
#274=ADVANCED_FACE('',(#38),#24,.T.);
#275=ADVANCED_FACE('',(#39),#25,.T.);
#276=ADVANCED_FACE('',(#40),#26,.T.);
#277=ADVANCED_FACE('',(#41),#27,.T.);
#278=ADVANCED_FACE('',(#42),#28,.T.);
#279=ADVANCED_FACE('',(#43),#29,.T.);
#280=ADVANCED_FACE('',(#44),#30,.T.);
#281=ADVANCED_FACE('',(#45,#15,#16,#17,#18),#31,.T.);
#282=ADVANCED_FACE('',(#46,#19,#20,#21,#22),#32,.F.);
#283=CLOSED_SHELL('',(#269,#270,#271,#272,#273,#274,#275,#276,#277,#278,
#279,#280,#281,#282));
#284=DERIVED_UNIT_ELEMENT(#287,1.);
#285=DERIVED_UNIT_ELEMENT(#482,-3.);
#286=DIMENSIONAL_EXPONENTS(0.,1.,0.,0.,0.,0.,0.);
#287=(
CONVERSION_BASED_UNIT('gram',#289)
MASS_UNIT()
NAMED_UNIT(#286)
);
#288=(
MASS_UNIT()
NAMED_UNIT(*)
SI_UNIT(.KILO.,.GRAM.)
);
#289=MASS_MEASURE_WITH_UNIT(MASS_MEASURE(0.001),#288);
#290=DERIVED_UNIT((#284,#285));
#291=MEASURE_REPRESENTATION_ITEM('density measure',
POSITIVE_RATIO_MEASURE(1.),#290);
#292=PROPERTY_DEFINITION_REPRESENTATION(#297,#294);
#293=PROPERTY_DEFINITION_REPRESENTATION(#298,#295);
#294=REPRESENTATION('material name',(#296),#479);
#295=REPRESENTATION('density',(#291),#479);
#296=DESCRIPTIVE_REPRESENTATION_ITEM('Generisch','Generisch');
#297=PROPERTY_DEFINITION('material property','material name',#489);
#298=PROPERTY_DEFINITION('material property','density of part',#489);
#299=DATE_TIME_ROLE('creation_date');
#300=APPLIED_DATE_AND_TIME_ASSIGNMENT(#301,#299,(#489));
#301=DATE_AND_TIME(#302,#303);
#302=CALENDAR_DATE(2026,4,1);
#303=LOCAL_TIME(0,0,0.,#304);
#304=COORDINATED_UNIVERSAL_TIME_OFFSET(0,0,.BEHIND.);
#305=AXIS2_PLACEMENT_3D('',#402,#328,#329);
#306=AXIS2_PLACEMENT_3D('',#403,#330,#331);
#307=AXIS2_PLACEMENT_3D('',#405,#332,#333);
#308=AXIS2_PLACEMENT_3D('',#408,#335,#336);
#309=AXIS2_PLACEMENT_3D('',#409,#337,#338);
#310=AXIS2_PLACEMENT_3D('',#411,#339,#340);
#311=AXIS2_PLACEMENT_3D('',#414,#342,#343);
#312=AXIS2_PLACEMENT_3D('',#415,#344,#345);
#313=AXIS2_PLACEMENT_3D('',#417,#346,#347);
#314=AXIS2_PLACEMENT_3D('',#420,#349,#350);
#315=AXIS2_PLACEMENT_3D('',#421,#351,#352);
#316=AXIS2_PLACEMENT_3D('',#423,#353,#354);
#317=AXIS2_PLACEMENT_3D('',#426,#356,#357);
#318=AXIS2_PLACEMENT_3D('',#427,#358,#359);
#319=AXIS2_PLACEMENT_3D('',#436,#364,#365);
#320=AXIS2_PLACEMENT_3D('',#442,#369,#370);
#321=AXIS2_PLACEMENT_3D('',#448,#374,#375);
#322=AXIS2_PLACEMENT_3D('',#454,#379,#380);
#323=AXIS2_PLACEMENT_3D('',#460,#384,#385);
#324=AXIS2_PLACEMENT_3D('',#466,#389,#390);
#325=AXIS2_PLACEMENT_3D('',#472,#394,#395);
#326=AXIS2_PLACEMENT_3D('',#475,#398,#399);
#327=AXIS2_PLACEMENT_3D('',#476,#400,#401);
#328=DIRECTION('axis',(0.,0.,1.));
#329=DIRECTION('refdir',(1.,0.,0.));
#330=DIRECTION('center_axis',(0.,0.,1.));
#331=DIRECTION('ref_axis',(-1.,0.,0.));
#332=DIRECTION('center_axis',(0.,0.,-1.));
#333=DIRECTION('ref_axis',(-1.,0.,0.));
#334=DIRECTION('',(0.,0.,-1.));
#335=DIRECTION('center_axis',(0.,0.,-1.));
#336=DIRECTION('ref_axis',(-1.,0.,0.));
#337=DIRECTION('center_axis',(0.,0.,1.));
#338=DIRECTION('ref_axis',(-1.,0.,0.));
#339=DIRECTION('center_axis',(0.,0.,-1.));
#340=DIRECTION('ref_axis',(-1.,0.,0.));
#341=DIRECTION('',(0.,0.,-1.));
#342=DIRECTION('center_axis',(0.,0.,-1.));
#343=DIRECTION('ref_axis',(-1.,0.,0.));
#344=DIRECTION('center_axis',(0.,0.,1.));
#345=DIRECTION('ref_axis',(-1.,0.,0.));
#346=DIRECTION('center_axis',(0.,0.,-1.));
#347=DIRECTION('ref_axis',(-1.,0.,0.));
#348=DIRECTION('',(0.,0.,-1.));
#349=DIRECTION('center_axis',(0.,0.,-1.));
#350=DIRECTION('ref_axis',(-1.,0.,0.));
#351=DIRECTION('center_axis',(0.,0.,1.));
#352=DIRECTION('ref_axis',(-1.,0.,0.));
#353=DIRECTION('center_axis',(0.,0.,-1.));
#354=DIRECTION('ref_axis',(-1.,0.,0.));
#355=DIRECTION('',(0.,0.,-1.));
#356=DIRECTION('center_axis',(0.,0.,-1.));
#357=DIRECTION('ref_axis',(-1.,0.,0.));
#358=DIRECTION('center_axis',(1.,0.,0.));
#359=DIRECTION('ref_axis',(0.,1.,0.));
#360=DIRECTION('',(0.,1.,0.));
#361=DIRECTION('',(0.,0.,1.));
#362=DIRECTION('',(0.,1.,0.));
#363=DIRECTION('',(0.,0.,1.));
#364=DIRECTION('center_axis',(0.,-1.,0.));
#365=DIRECTION('ref_axis',(1.,0.,0.));
#366=DIRECTION('',(1.,0.,0.));
#367=DIRECTION('',(1.,0.,0.));
#368=DIRECTION('',(0.,0.,1.));
#369=DIRECTION('center_axis',(-1.,8.11557923436088E-17,0.));
#370=DIRECTION('ref_axis',(-8.11557923436088E-17,-1.,0.));
#371=DIRECTION('',(-8.11557923436088E-17,-1.,0.));
#372=DIRECTION('',(-8.11557923436088E-17,-1.,0.));
#373=DIRECTION('',(0.,0.,1.));
#374=DIRECTION('center_axis',(1.71274075424267E-16,1.,0.));
#375=DIRECTION('ref_axis',(-1.,1.71274075424267E-16,0.));
#376=DIRECTION('',(-1.,1.71274075424267E-16,0.));
#377=DIRECTION('',(-1.,1.71274075424267E-16,0.));
#378=DIRECTION('',(0.,0.,1.));
#379=DIRECTION('center_axis',(1.,0.,0.));
#380=DIRECTION('ref_axis',(0.,1.,0.));
#381=DIRECTION('',(0.,1.,0.));
#382=DIRECTION('',(0.,1.,0.));
#383=DIRECTION('',(0.,0.,1.));
#384=DIRECTION('center_axis',(8.88178419700125E-16,1.,0.));
#385=DIRECTION('ref_axis',(-1.,8.88178419700125E-16,0.));
#386=DIRECTION('',(-1.,8.88178419700125E-16,0.));
#387=DIRECTION('',(-1.,8.88178419700125E-16,0.));
#388=DIRECTION('',(0.,0.,1.));
#389=DIRECTION('center_axis',(-1.,0.,0.));
#390=DIRECTION('ref_axis',(0.,-1.,0.));
#391=DIRECTION('',(0.,-1.,0.));
#392=DIRECTION('',(0.,-1.,0.));
#393=DIRECTION('',(0.,0.,1.));
#394=DIRECTION('center_axis',(1.71274075424267E-16,1.,0.));
#395=DIRECTION('ref_axis',(-1.,1.71274075424267E-16,0.));
#396=DIRECTION('',(-1.,1.71274075424267E-16,0.));
#397=DIRECTION('',(-1.,1.71274075424267E-16,0.));
#398=DIRECTION('center_axis',(0.,0.,1.));
#399=DIRECTION('ref_axis',(1.,0.,0.));
#400=DIRECTION('center_axis',(0.,0.,1.));
#401=DIRECTION('ref_axis',(1.,0.,0.));
#402=CARTESIAN_POINT('',(0.,0.,0.));
#403=CARTESIAN_POINT('Origin',(3.,63.,0.));
#404=CARTESIAN_POINT('',(5.,63.,2.));
#405=CARTESIAN_POINT('Origin',(3.,63.,2.));
#406=CARTESIAN_POINT('',(5.,63.,0.));
#407=CARTESIAN_POINT('',(5.,63.,0.));
#408=CARTESIAN_POINT('Origin',(3.,63.,0.));
#409=CARTESIAN_POINT('Origin',(3.,3.,0.));
#410=CARTESIAN_POINT('',(5.,3.,2.));
#411=CARTESIAN_POINT('Origin',(3.,3.,2.));
#412=CARTESIAN_POINT('',(5.,3.,0.));
#413=CARTESIAN_POINT('',(5.,3.,0.));
#414=CARTESIAN_POINT('Origin',(3.,3.,0.));
#415=CARTESIAN_POINT('Origin',(360.,63.,0.));
#416=CARTESIAN_POINT('',(362.,63.,2.));
#417=CARTESIAN_POINT('Origin',(360.,63.,2.));
#418=CARTESIAN_POINT('',(362.,63.,0.));
#419=CARTESIAN_POINT('',(362.,63.,0.));
#420=CARTESIAN_POINT('Origin',(360.,63.,0.));
#421=CARTESIAN_POINT('Origin',(360.,3.,0.));
#422=CARTESIAN_POINT('',(362.,3.,2.));
#423=CARTESIAN_POINT('Origin',(360.,3.,2.));
#424=CARTESIAN_POINT('',(362.,3.,0.));
#425=CARTESIAN_POINT('',(362.,3.,0.));
#426=CARTESIAN_POINT('Origin',(360.,3.,0.));
#427=CARTESIAN_POINT('Origin',(363.,0.,0.));
#428=CARTESIAN_POINT('',(363.,0.,0.));
#429=CARTESIAN_POINT('',(363.,66.,0.));
#430=CARTESIAN_POINT('',(363.,0.,0.));
#431=CARTESIAN_POINT('',(363.,66.,2.));
#432=CARTESIAN_POINT('',(363.,66.,0.));
#433=CARTESIAN_POINT('',(363.,0.,2.));
#434=CARTESIAN_POINT('',(363.,0.,2.));
#435=CARTESIAN_POINT('',(363.,0.,0.));
#436=CARTESIAN_POINT('Origin',(0.,0.,0.));
#437=CARTESIAN_POINT('',(0.,0.,0.));
#438=CARTESIAN_POINT('',(0.,0.,0.));
#439=CARTESIAN_POINT('',(0.,0.,2.));
#440=CARTESIAN_POINT('',(0.,0.,2.));
#441=CARTESIAN_POINT('',(0.,0.,0.));
#442=CARTESIAN_POINT('Origin',(5.35628229467819E-15,66.0000000000001,0.));
#443=CARTESIAN_POINT('',(5.35628229467819E-15,66.0000000000001,0.));
#444=CARTESIAN_POINT('',(5.35628229467819E-15,66.0000000000001,0.));
#445=CARTESIAN_POINT('',(0.,66.0000000000001,2.));
#446=CARTESIAN_POINT('',(5.35628229467819E-15,66.0000000000001,2.));
#447=CARTESIAN_POINT('',(5.35628229467819E-15,66.0000000000001,0.));
#448=CARTESIAN_POINT('Origin',(171.5,66.,0.));
#449=CARTESIAN_POINT('',(171.5,66.,0.));
#450=CARTESIAN_POINT('',(363.,66.,0.));
#451=CARTESIAN_POINT('',(171.5,66.,2.));
#452=CARTESIAN_POINT('',(363.,66.,2.));
#453=CARTESIAN_POINT('',(171.5,66.,0.));
#454=CARTESIAN_POINT('Origin',(171.5,51.,0.));
#455=CARTESIAN_POINT('',(171.5,51.,0.));
#456=CARTESIAN_POINT('',(171.5,51.,0.));
#457=CARTESIAN_POINT('',(171.5,51.,2.));
#458=CARTESIAN_POINT('',(171.5,51.,2.));
#459=CARTESIAN_POINT('',(171.5,51.,0.));
#460=CARTESIAN_POINT('Origin',(191.5,51.,0.));
#461=CARTESIAN_POINT('',(191.5,51.,0.));
#462=CARTESIAN_POINT('',(191.5,51.,0.));
#463=CARTESIAN_POINT('',(191.5,51.,2.));
#464=CARTESIAN_POINT('',(191.5,51.,2.));
#465=CARTESIAN_POINT('',(191.5,51.,0.));
#466=CARTESIAN_POINT('Origin',(191.5,66.,0.));
#467=CARTESIAN_POINT('',(191.5,66.,0.));
#468=CARTESIAN_POINT('',(191.5,81.,0.));
#469=CARTESIAN_POINT('',(191.5,66.,2.));
#470=CARTESIAN_POINT('',(191.5,81.,2.));
#471=CARTESIAN_POINT('',(191.5,66.,0.));
#472=CARTESIAN_POINT('Origin',(363.,66.,0.));
#473=CARTESIAN_POINT('',(363.,66.,0.));
#474=CARTESIAN_POINT('',(363.,66.,2.));
#475=CARTESIAN_POINT('Origin',(181.5,33.,2.));
#476=CARTESIAN_POINT('Origin',(181.5,33.,0.));
#477=UNCERTAINTY_MEASURE_WITH_UNIT(LENGTH_MEASURE(0.01),#481,
'DISTANCE_ACCURACY_VALUE',
'Maximum model space distance between geometric entities at asserted c
onnectivities');
#478=UNCERTAINTY_MEASURE_WITH_UNIT(LENGTH_MEASURE(0.01),#481,
'DISTANCE_ACCURACY_VALUE',
'Maximum model space distance between geometric entities at asserted c
onnectivities');
#479=(
GEOMETRIC_REPRESENTATION_CONTEXT(3)
GLOBAL_UNCERTAINTY_ASSIGNED_CONTEXT((#477))
GLOBAL_UNIT_ASSIGNED_CONTEXT((#481,#483,#484))
REPRESENTATION_CONTEXT('','3D')
);
#480=(
GEOMETRIC_REPRESENTATION_CONTEXT(3)
GLOBAL_UNCERTAINTY_ASSIGNED_CONTEXT((#478))
GLOBAL_UNIT_ASSIGNED_CONTEXT((#481,#483,#484))
REPRESENTATION_CONTEXT('','3D')
);
#481=(
LENGTH_UNIT()
NAMED_UNIT(*)
SI_UNIT(.MILLI.,.METRE.)
);
#482=(
LENGTH_UNIT()
NAMED_UNIT(*)
SI_UNIT(.CENTI.,.METRE.)
);
#483=(
NAMED_UNIT(*)
PLANE_ANGLE_UNIT()
SI_UNIT($,.RADIAN.)
);
#484=(
NAMED_UNIT(*)
SI_UNIT($,.STERADIAN.)
SOLID_ANGLE_UNIT()
);
#485=SHAPE_DEFINITION_REPRESENTATION(#486,#487);
#486=PRODUCT_DEFINITION_SHAPE('',$,#489);
#487=SHAPE_REPRESENTATION('',(#305),#479);
#488=PRODUCT_DEFINITION_CONTEXT('part definition',#493,'design');
#489=PRODUCT_DEFINITION('test_taster','test_taster',#490,#488);
#490=PRODUCT_DEFINITION_FORMATION('',$,#495);
#491=PRODUCT_RELATED_PRODUCT_CATEGORY('test_taster','test_taster',(#495));
#492=APPLICATION_PROTOCOL_DEFINITION('international standard',
'automotive_design',2009,#493);
#493=APPLICATION_CONTEXT(
'Core Data for Automotive Mechanical Design Process');
#494=PRODUCT_CONTEXT('part definition',#493,'mechanical');
#495=PRODUCT('test_taster','test_taster',$,(#494));
#496=PRESENTATION_STYLE_ASSIGNMENT((#497));
#497=SURFACE_STYLE_USAGE(.BOTH.,#500);
#498=SURFACE_STYLE_RENDERING_WITH_PROPERTIES($,#504,(#499));
#499=SURFACE_STYLE_TRANSPARENT(0.);
#500=SURFACE_SIDE_STYLE('',(#501,#498));
#501=SURFACE_STYLE_FILL_AREA(#502);
#502=FILL_AREA_STYLE('',(#503));
#503=FILL_AREA_STYLE_COLOUR('',#504);
#504=COLOUR_RGB('',0.749019607843137,0.749019607843137,0.749019607843137);
ENDSEC;
END-ISO-10303-21;
